ISO-10303-21;
HEADER;
/****************************************************************
 * Generated by software with PDElib inside                    *
 * PDElib Version v51a, created Wed 11/30/2011                  *
 * ITI Transcendata (http://www.transcendata.com/)              *
 ****************************************************************/
FILE_DESCRIPTION((''),'2;1');
FILE_NAME('N:\\Website_Ocular\\STEP\\6411-H.stp','2012-12-07T10:02:49',('fredp'),(''),'Autodesk Inventor 2013','Autodesk Inventor 2013','');
FILE_SCHEMA(('AUTOMOTIVE_DESIGN { 1 0 10303 214 1 1 1 1 }'));
ENDSEC;
DATA;
#5=APPLICATION_CONTEXT('automotive design');
#6=APPLICATION_PROTOCOL_DEFINITION('International Standard','automotive_design',2001,#5);
#7=PRODUCT_CONTEXT('',#5,'mechanical');
#8=PRODUCT('6411-H_PIERCEED','6411-H_PIERCEED',$,(#7));
#9=PRODUCT_RELATED_PRODUCT_CATEGORY('part',$,(#8));
#10=PRODUCT_DEFINITION_FORMATION('',$,#8);
#11=PRODUCT_DEFINITION_CONTEXT('part definition',#5,'design');
#12=PRODUCT_DEFINITION('',$,#10,#11);
#18=(NAMED_UNIT(*)PLANE_ANGLE_UNIT()SI_UNIT($,.RADIAN.));
#19=DIMENSIONAL_EXPONENTS(0.0,0.0,0.0,0.0,0.0,0.0,0.0);
#20=PLANE_ANGLE_MEASURE_WITH_UNIT(PLANE_ANGLE_MEASURE(0.0174532925),#18);
#24=(CONVERSION_BASED_UNIT('DEGREE',#20)NAMED_UNIT(#19)PLANE_ANGLE_UNIT());
#28=(NAMED_UNIT(*)SI_UNIT($,.STERADIAN.)SOLID_ANGLE_UNIT());
#32=(LENGTH_UNIT()NAMED_UNIT(*)SI_UNIT(.CENTI.,.METRE.));
#33=DIMENSIONAL_EXPONENTS(1.0,0.0,0.0,0.0,0.0,0.0,0.0);
#34=LENGTH_MEASURE_WITH_UNIT(LENGTH_MEASURE(2.54),#32);
#38=(CONVERSION_BASED_UNIT('INCH',#34)LENGTH_UNIT()NAMED_UNIT(#33));
#40=UNCERTAINTY_MEASURE_WITH_UNIT(LENGTH_MEASURE(0.000393700787402),#38,'DISTANCE_ACCURACY_VALUE','');
#42=(GEOMETRIC_REPRESENTATION_CONTEXT(3)GLOBAL_UNCERTAINTY_ASSIGNED_CONTEXT((#40))GLOBAL_UNIT_ASSIGNED_CONTEXT((#24,#28,#38))REPRESENTATION_CONTEXT('None','None'));
#43=AXIS2_PLACEMENT_3D('',#44,#45,#46);
#44=CARTESIAN_POINT('',(0.0,0.0,0.0));
#45=DIRECTION('',(0.0,0.0,1.0));
#46=DIRECTION('',(1.0,0.0,0.0));
#47=SHAPE_REPRESENTATION('',(#43),#42);
#48=PRODUCT_DEFINITION_SHAPE('','',#12);
#49=SHAPE_DEFINITION_REPRESENTATION(#48,#47);
#55=(NAMED_UNIT(*)PLANE_ANGLE_UNIT()SI_UNIT($,.RADIAN.));
#56=DIMENSIONAL_EXPONENTS(0.0,0.0,0.0,0.0,0.0,0.0,0.0);
#57=PLANE_ANGLE_MEASURE_WITH_UNIT(PLANE_ANGLE_MEASURE(0.0174532925),#55);
#61=(CONVERSION_BASED_UNIT('DEGREE',#57)NAMED_UNIT(#56)PLANE_ANGLE_UNIT());
#65=(NAMED_UNIT(*)SI_UNIT($,.STERADIAN.)SOLID_ANGLE_UNIT());
#69=(LENGTH_UNIT()NAMED_UNIT(*)SI_UNIT(.MILLI.,.METRE.));
#71=UNCERTAINTY_MEASURE_WITH_UNIT(LENGTH_MEASURE(0.000001),#69,'DISTANCE_ACCURACY_VALUE','');
#73=(GEOMETRIC_REPRESENTATION_CONTEXT(3)GLOBAL_UNCERTAINTY_ASSIGNED_CONTEXT((#71))GLOBAL_UNIT_ASSIGNED_CONTEXT((#61,#65,#69))REPRESENTATION_CONTEXT('','3D'));
#74=CARTESIAN_POINT('',(1.8125,0.12,0.0));
#75=DIRECTION('',(0.0,1.0,0.0));
#76=DIRECTION('',(-1.0,0.0,0.0));
#77=AXIS2_PLACEMENT_3D('',#74,#75,#76);
#78=CYLINDRICAL_SURFACE('',#77,0.14);
#79=CARTESIAN_POINT('',(1.9525,0.12,1.714506E-017));
#80=VERTEX_POINT('',#79);
#81=CARTESIAN_POINT('',(1.8125,0.12,0.0));
#82=DIRECTION('',(0.0,-1.0,0.0));
#83=DIRECTION('',(-1.0,0.0,0.0));
#84=AXIS2_PLACEMENT_3D('',#81,#82,#83);
#85=CIRCLE('',#84,0.14);
#86=EDGE_CURVE('',#80,#80,#85,.T.);
#87=ORIENTED_EDGE('',*,*,#86,.F.);
#88=EDGE_LOOP('',(#87));
#89=FACE_OUTER_BOUND('',#88,.T.);
#90=CARTESIAN_POINT('',(1.9525,6.556435E-017,-1.714506E-017));
#91=VERTEX_POINT('',#90);
#92=CARTESIAN_POINT('',(1.8125,6.556435E-017,0.0));
#93=DIRECTION('',(0.0,1.0,0.0));
#94=DIRECTION('',(-1.0,0.0,0.0));
#95=AXIS2_PLACEMENT_3D('',#92,#93,#94);
#96=CIRCLE('',#95,0.14);
#97=EDGE_CURVE('',#91,#91,#96,.T.);
#98=ORIENTED_EDGE('',*,*,#97,.F.);
#99=EDGE_LOOP('',(#98));
#100=FACE_BOUND('',#99,.T.);
#101=ADVANCED_FACE('',(#89,#100),#78,.F.);
#102=CARTESIAN_POINT('',(-1.8125,0.12,0.0));
#103=DIRECTION('',(0.0,1.0,0.0));
#104=DIRECTION('',(-1.0,0.0,0.0));
#105=AXIS2_PLACEMENT_3D('',#102,#103,#104);
#106=CYLINDRICAL_SURFACE('',#105,0.14);
#107=CARTESIAN_POINT('',(-1.6725,0.12,1.714506E-017));
#108=VERTEX_POINT('',#107);
#109=CARTESIAN_POINT('',(-1.8125,0.12,0.0));
#110=DIRECTION('',(0.0,-1.0,0.0));
#111=DIRECTION('',(-1.0,0.0,0.0));
#112=AXIS2_PLACEMENT_3D('',#109,#110,#111);
#113=CIRCLE('',#112,0.14);
#114=EDGE_CURVE('',#108,#108,#113,.T.);
#115=ORIENTED_EDGE('',*,*,#114,.F.);
#116=EDGE_LOOP('',(#115));
#117=FACE_OUTER_BOUND('',#116,.T.);
#118=CARTESIAN_POINT('',(-1.6725,6.556435E-017,-1.714506E-017));
#119=VERTEX_POINT('',#118);
#120=CARTESIAN_POINT('',(-1.8125,6.556435E-017,0.0));
#121=DIRECTION('',(0.0,1.0,0.0));
#122=DIRECTION('',(-1.0,0.0,0.0));
#123=AXIS2_PLACEMENT_3D('',#120,#121,#122);
#124=CIRCLE('',#123,0.14);
#125=EDGE_CURVE('',#119,#119,#124,.T.);
#126=ORIENTED_EDGE('',*,*,#125,.F.);
#127=EDGE_LOOP('',(#126));
#128=FACE_BOUND('',#127,.T.);
#129=ADVANCED_FACE('',(#117,#128),#106,.F.);
#130=CARTESIAN_POINT('',(1.21,0.213,0.0));
#131=DIRECTION('',(0.0,1.0,0.0));
#132=DIRECTION('',(0.0,0.0,1.0));
#133=AXIS2_PLACEMENT_3D('',#130,#131,#132);
#134=TOROIDAL_SURFACE('',#133,0.243,0.093);
#135=CARTESIAN_POINT('',(1.170165975103735,0.213,-0.144614143362825));
#136=VERTEX_POINT('',#135);
#137=CARTESIAN_POINT('',(1.354479523298488,0.12,-0.195383385546064));
#138=VERTEX_POINT('',#137);
#139=CARTESIAN_POINT('',(1.170165975103735,0.213,-0.144614143362825));
#140=CARTESIAN_POINT('',(1.186078091125761,0.200004162531813,-0.148997142224723));
#141=CARTESIAN_POINT('',(1.203564008298154,0.185670731649269,-0.153813645256737));
#142=CARTESIAN_POINT('',(1.239966528733125,0.159409386091285,-0.16384073438906));
#143=CARTESIAN_POINT('',(1.258962687158261,0.147600314156315,-0.16907323399141));
#144=CARTESIAN_POINT('',(1.28885368378077,0.133572457688317,-0.177306721228187));
#145=CARTESIAN_POINT('',(1.301786526148876,0.12860400533222,-0.180869077944418));
#146=CARTESIAN_POINT('',(1.328317651369775,0.121800443629372,-0.188177087230368));
#147=CARTESIAN_POINT('',(1.341924185715735,0.12,-0.191925012677252));
#148=CARTESIAN_POINT('',(1.354479523298488,0.12,-0.195383385546064));
#149=B_SPLINE_CURVE_WITH_KNOTS('',3,(#139,#140,#141,#142,#143,#144,#145,#146,#147,#148),.UNSPECIFIED.,.F.,.U.,(4,2,2,2,4),(0.0,0.16007403968426,0.32014807936852,0.419382846614504,0.518617613860488),.UNSPECIFIED.);
#150=EDGE_CURVE('',#136,#138,#149,.T.);
#151=ORIENTED_EDGE('',*,*,#150,.F.);
#152=CARTESIAN_POINT('',(1.170165975103735,0.213,0.144614143362825));
#153=VERTEX_POINT('',#152);
#154=CARTESIAN_POINT('',(1.21,0.213,0.0));
#155=DIRECTION('',(0.0,1.0,0.0));
#156=DIRECTION('',(1.0,0.0,0.0));
#157=AXIS2_PLACEMENT_3D('',#154,#155,#156);
#158=CIRCLE('',#157,0.15);
#159=EDGE_CURVE('',#153,#136,#158,.T.);
#160=ORIENTED_EDGE('',*,*,#159,.F.);
#161=CARTESIAN_POINT('',(1.354479523298488,0.12,0.195383385546064));
#162=VERTEX_POINT('',#161);
#163=CARTESIAN_POINT('',(1.354479523298488,0.12,0.195383385546064));
#164=CARTESIAN_POINT('',(1.341924185715735,0.12,0.191925012677252));
#165=CARTESIAN_POINT('',(1.328317651369775,0.121800443629372,0.188177087230368));
#166=CARTESIAN_POINT('',(1.301786526148876,0.12860400533222,0.180869077944418));
#167=CARTESIAN_POINT('',(1.28885368378077,0.133572457688317,0.177306721228187));
#168=CARTESIAN_POINT('',(1.258962687158261,0.147600314156315,0.16907323399141));
#169=CARTESIAN_POINT('',(1.239966528733125,0.159409386091285,0.163840734389059));
#170=CARTESIAN_POINT('',(1.203564008298154,0.185670731649269,0.153813645256737));
#171=CARTESIAN_POINT('',(1.186078091125761,0.200004162531813,0.148997142224723));
#172=CARTESIAN_POINT('',(1.170165975103735,0.213,0.144614143362825));
#173=B_SPLINE_CURVE_WITH_KNOTS('',3,(#163,#164,#165,#166,#167,#168,#169,#170,#171,#172),.UNSPECIFIED.,.F.,.U.,(4,2,2,2,4),(1.284803519574139,1.384038286820123,1.483273054066107,1.643347093750367,1.803421133434627),.UNSPECIFIED.);
#174=EDGE_CURVE('',#162,#153,#173,.T.);
#175=ORIENTED_EDGE('',*,*,#174,.F.);
#176=CARTESIAN_POINT('',(1.21,0.12,0.0));
#177=DIRECTION('',(0.0,-1.0,0.0));
#178=DIRECTION('',(1.0,0.0,0.0));
#179=AXIS2_PLACEMENT_3D('',#176,#177,#178);
#180=CIRCLE('',#179,0.243);
#181=EDGE_CURVE('',#138,#162,#180,.T.);
#182=ORIENTED_EDGE('',*,*,#181,.F.);
#183=EDGE_LOOP('',(#151,#160,#175,#182));
#184=FACE_OUTER_BOUND('',#183,.T.);
#185=ADVANCED_FACE('',(#184),#134,.F.);
#186=CARTESIAN_POINT('',(1.61238452849461,0.12,-1.121558E-017));
#187=DIRECTION('',(0.0,-1.0,0.0));
#188=DIRECTION('',(0.0,0.0,1.0));
#189=AXIS2_PLACEMENT_3D('',#186,#187,#188);
#190=PLANE('',#189);
#191=ORIENTED_EDGE('',*,*,#181,.T.);
#192=CARTESIAN_POINT('',(1.730176348547718,0.12,0.298869229616505));
#193=VERTEX_POINT('',#192);
#194=CARTESIAN_POINT('',(1.354479523298488,0.12,0.195383385546064));
#195=DIRECTION('',(0.9640942890855,0.0,0.265560165975104));
#196=VECTOR('',#195,0.389688881577756);
#197=LINE('',#194,#196);
#198=EDGE_CURVE('',#162,#193,#197,.T.);
#199=ORIENTED_EDGE('',*,*,#198,.T.);
#200=CARTESIAN_POINT('',(1.730176348547718,0.12,-0.298869229616505));
#201=VERTEX_POINT('',#200);
#202=CARTESIAN_POINT('',(1.8125,0.12,0.0));
#203=DIRECTION('',(0.0,1.0,0.0));
#204=DIRECTION('',(0.265560165975104,0.0,-0.9640942890855));
#205=AXIS2_PLACEMENT_3D('',#202,#203,#204);
#206=CIRCLE('',#205,0.31);
#207=EDGE_CURVE('',#193,#201,#206,.T.);
#208=ORIENTED_EDGE('',*,*,#207,.T.);
#209=CARTESIAN_POINT('',(1.730176348547718,0.12,-0.298869229616505));
#210=DIRECTION('',(-0.9640942890855,0.0,0.265560165975104));
#211=VECTOR('',#210,0.389688881577756);
#212=LINE('',#209,#211);
#213=EDGE_CURVE('',#201,#138,#212,.T.);
#214=ORIENTED_EDGE('',*,*,#213,.T.);
#215=EDGE_LOOP('',(#191,#199,#208,#214));
#216=FACE_OUTER_BOUND('',#215,.T.);
#217=ORIENTED_EDGE('',*,*,#86,.T.);
#218=EDGE_LOOP('',(#217));
#219=FACE_BOUND('',#218,.T.);
#220=ADVANCED_FACE('',(#216,#219),#190,.F.);
#221=CARTESIAN_POINT('',(1.170165975103735,5.536473E-017,0.144614143362825));
#222=DIRECTION('',(0.265560165975104,0.0,-0.9640942890855));
#223=DIRECTION('',(-0.9640942890855,0.0,-0.265560165975104));
#224=AXIS2_PLACEMENT_3D('',#221,#222,#223);
#225=PLANE('',#224);
#226=ORIENTED_EDGE('',*,*,#198,.F.);
#227=ORIENTED_EDGE('',*,*,#174,.T.);
#228=CARTESIAN_POINT('',(1.170165975103735,5.536473E-017,0.144614143362825));
#229=VERTEX_POINT('',#228);
#230=CARTESIAN_POINT('',(1.170165975103735,0.213,0.144614143362825));
#231=DIRECTION('',(0.0,-1.0,0.0));
#232=VECTOR('',#231,0.213);
#233=LINE('',#230,#232);
#234=EDGE_CURVE('',#153,#229,#233,.T.);
#235=ORIENTED_EDGE('',*,*,#234,.T.);
#236=CARTESIAN_POINT('',(1.730176348547718,5.536473E-017,0.298869229616505));
#237=VERTEX_POINT('',#236);
#238=CARTESIAN_POINT('',(1.730176348547718,5.536473E-017,0.298869229616505));
#239=DIRECTION('',(-0.9640942890855,0.0,-0.265560165975104));
#240=VECTOR('',#239,0.580866809174013);
#241=LINE('',#238,#240);
#242=EDGE_CURVE('',#237,#229,#241,.T.);
#243=ORIENTED_EDGE('',*,*,#242,.F.);
#244=CARTESIAN_POINT('',(1.730176348547718,5.536473E-017,0.298869229616505));
#245=DIRECTION('',(0.0,1.0,0.0));
#246=VECTOR('',#245,0.12);
#247=LINE('',#244,#246);
#248=EDGE_CURVE('',#237,#193,#247,.T.);
#249=ORIENTED_EDGE('',*,*,#248,.T.);
#250=EDGE_LOOP('',(#226,#227,#235,#243,#249));
#251=FACE_OUTER_BOUND('',#250,.T.);
#252=ADVANCED_FACE('',(#251),#225,.F.);
#253=CARTESIAN_POINT('',(1.8125,5.536473E-017,0.0));
#254=DIRECTION('',(0.0,-1.0,0.0));
#255=DIRECTION('',(0.265560165975104,0.0,-0.9640942890855));
#256=AXIS2_PLACEMENT_3D('',#253,#254,#255);
#257=CYLINDRICAL_SURFACE('',#256,0.31);
#258=ORIENTED_EDGE('',*,*,#207,.F.);
#259=ORIENTED_EDGE('',*,*,#248,.F.);
#260=CARTESIAN_POINT('',(1.730176348547718,5.536473E-017,-0.298869229616505));
#261=VERTEX_POINT('',#260);
#262=CARTESIAN_POINT('',(1.8125,5.536473E-017,0.0));
#263=DIRECTION('',(0.0,-1.0,0.0));
#264=DIRECTION('',(0.265560165975104,0.0,-0.9640942890855));
#265=AXIS2_PLACEMENT_3D('',#262,#263,#264);
#266=CIRCLE('',#265,0.31);
#267=EDGE_CURVE('',#261,#237,#266,.T.);
#268=ORIENTED_EDGE('',*,*,#267,.F.);
#269=CARTESIAN_POINT('',(1.730176348547718,5.536473E-017,-0.298869229616505));
#270=DIRECTION('',(0.0,1.0,0.0));
#271=VECTOR('',#270,0.12);
#272=LINE('',#269,#271);
#273=EDGE_CURVE('',#261,#201,#272,.T.);
#274=ORIENTED_EDGE('',*,*,#273,.T.);
#275=EDGE_LOOP('',(#258,#259,#268,#274));
#276=FACE_OUTER_BOUND('',#275,.T.);
#277=ADVANCED_FACE('',(#276),#257,.T.);
#278=CARTESIAN_POINT('',(1.730176348547718,5.536473E-017,-0.298869229616505));
#279=DIRECTION('',(0.265560165975104,0.0,0.9640942890855));
#280=DIRECTION('',(0.9640942890855,0.0,-0.265560165975104));
#281=AXIS2_PLACEMENT_3D('',#278,#279,#280);
#282=PLANE('',#281);
#283=ORIENTED_EDGE('',*,*,#213,.F.);
#284=ORIENTED_EDGE('',*,*,#273,.F.);
#285=CARTESIAN_POINT('',(1.170165975103735,5.536473E-017,-0.144614143362825));
#286=VERTEX_POINT('',#285);
#287=CARTESIAN_POINT('',(1.170165975103735,5.536473E-017,-0.144614143362825));
#288=DIRECTION('',(0.9640942890855,0.0,-0.265560165975104));
#289=VECTOR('',#288,0.580866809174014);
#290=LINE('',#287,#289);
#291=EDGE_CURVE('',#286,#261,#290,.T.);
#292=ORIENTED_EDGE('',*,*,#291,.F.);
#293=CARTESIAN_POINT('',(1.170165975103735,0.213,-0.144614143362825));
#294=DIRECTION('',(0.0,-1.0,0.0));
#295=VECTOR('',#294,0.213);
#296=LINE('',#293,#295);
#297=EDGE_CURVE('',#136,#286,#296,.T.);
#298=ORIENTED_EDGE('',*,*,#297,.F.);
#299=ORIENTED_EDGE('',*,*,#150,.T.);
#300=EDGE_LOOP('',(#283,#284,#292,#298,#299));
#301=FACE_OUTER_BOUND('',#300,.T.);
#302=ADVANCED_FACE('',(#301),#282,.F.);
#303=CARTESIAN_POINT('',(1.21,0.36,0.0));
#304=DIRECTION('',(0.0,1.0,0.0));
#305=DIRECTION('',(-1.0,0.0,0.0));
#306=AXIS2_PLACEMENT_3D('',#303,#304,#305);
#307=CYLINDRICAL_SURFACE('',#306,0.15);
#308=ORIENTED_EDGE('',*,*,#234,.F.);
#309=ORIENTED_EDGE('',*,*,#159,.T.);
#310=ORIENTED_EDGE('',*,*,#297,.T.);
#311=CARTESIAN_POINT('',(1.21,8.741914E-017,0.0));
#312=DIRECTION('',(0.0,-1.0,0.0));
#313=DIRECTION('',(-1.0,0.0,0.0));
#314=AXIS2_PLACEMENT_3D('',#311,#312,#313);
#315=CIRCLE('',#314,0.15);
#316=EDGE_CURVE('',#229,#286,#315,.T.);
#317=ORIENTED_EDGE('',*,*,#316,.F.);
#318=EDGE_LOOP('',(#308,#309,#310,#317));
#319=FACE_OUTER_BOUND('',#318,.T.);
#320=CARTESIAN_POINT('',(1.36,0.36,1.836970E-017));
#321=VERTEX_POINT('',#320);
#322=CARTESIAN_POINT('',(1.21,0.36,0.0));
#323=DIRECTION('',(0.0,-1.0,0.0));
#324=DIRECTION('',(-1.0,0.0,0.0));
#325=AXIS2_PLACEMENT_3D('',#322,#323,#324);
#326=CIRCLE('',#325,0.15);
#327=EDGE_CURVE('',#321,#321,#326,.T.);
#328=ORIENTED_EDGE('',*,*,#327,.T.);
#329=EDGE_LOOP('',(#328));
#330=FACE_BOUND('',#329,.T.);
#331=ADVANCED_FACE('',(#319,#330),#307,.T.);
#332=CARTESIAN_POINT('',(0.92,0.36,0.0));
#333=DIRECTION('',(0.0,0.0,1.0));
#334=DIRECTION('',(-1.0,0.0,0.0));
#335=AXIS2_PLACEMENT_3D('',#332,#333,#334);
#336=TOROIDAL_SURFACE('',#335,0.29,0.15);
#337=ORIENTED_EDGE('',*,*,#327,.F.);
#338=EDGE_LOOP('',(#337));
#339=FACE_OUTER_BOUND('',#338,.T.);
#340=CARTESIAN_POINT('',(0.92,0.8,1.836970E-017));
#341=VERTEX_POINT('',#340);
#342=CARTESIAN_POINT('',(0.92,0.65,0.0));
#343=DIRECTION('',(1.0,0.0,0.0));
#344=DIRECTION('',(0.0,-1.0,0.0));
#345=AXIS2_PLACEMENT_3D('',#342,#343,#344);
#346=CIRCLE('',#345,0.15);
#347=EDGE_CURVE('',#341,#341,#346,.T.);
#348=ORIENTED_EDGE('',*,*,#347,.T.);
#349=EDGE_LOOP('',(#348));
#350=FACE_BOUND('',#349,.T.);
#351=ADVANCED_FACE('',(#339,#350),#336,.T.);
#352=CARTESIAN_POINT('',(1.21,5.536473E-017,0.0));
#353=DIRECTION('',(0.0,1.0,0.0));
#354=DIRECTION('',(0.0,0.0,-1.0));
#355=AXIS2_PLACEMENT_3D('',#352,#353,#354);
#356=PLANE('',#355);
#357=ORIENTED_EDGE('',*,*,#316,.T.);
#358=ORIENTED_EDGE('',*,*,#291,.T.);
#359=ORIENTED_EDGE('',*,*,#267,.T.);
#360=ORIENTED_EDGE('',*,*,#242,.T.);
#361=EDGE_LOOP('',(#357,#358,#359,#360));
#362=FACE_OUTER_BOUND('',#361,.T.);
#363=ORIENTED_EDGE('',*,*,#97,.T.);
#364=EDGE_LOOP('',(#363));
#365=FACE_BOUND('',#364,.T.);
#366=ADVANCED_FACE('',(#362,#365),#356,.F.);
#367=CARTESIAN_POINT('',(-1.21,0.213,0.0));
#368=DIRECTION('',(0.0,1.0,0.0));
#369=DIRECTION('',(0.0,0.0,1.0));
#370=AXIS2_PLACEMENT_3D('',#367,#368,#369);
#371=TOROIDAL_SURFACE('',#370,0.243,0.093);
#372=CARTESIAN_POINT('',(-1.170165975103735,0.213,-0.144614143362825));
#373=VERTEX_POINT('',#372);
#374=CARTESIAN_POINT('',(-1.354479523298488,0.12,-0.195383385546064));
#375=VERTEX_POINT('',#374);
#376=CARTESIAN_POINT('',(-1.170165975103735,0.213,-0.144614143362825));
#377=CARTESIAN_POINT('',(-1.186078091125761,0.200004162531813,-0.148997142224723));
#378=CARTESIAN_POINT('',(-1.203564008298154,0.185670731649269,-0.153813645256737));
#379=CARTESIAN_POINT('',(-1.239966528733125,0.159409386091285,-0.16384073438906));
#380=CARTESIAN_POINT('',(-1.258962687158261,0.147600314156315,-0.16907323399141));
#381=CARTESIAN_POINT('',(-1.28885368378077,0.133572457688317,-0.177306721228187));
#382=CARTESIAN_POINT('',(-1.301786526148876,0.12860400533222,-0.180869077944418));
#383=CARTESIAN_POINT('',(-1.328317651369775,0.121800443629372,-0.188177087230368));
#384=CARTESIAN_POINT('',(-1.341924185715735,0.12,-0.191925012677252));
#385=CARTESIAN_POINT('',(-1.354479523298488,0.12,-0.195383385546064));
#386=B_SPLINE_CURVE_WITH_KNOTS('',3,(#376,#377,#378,#379,#380,#381,#382,#383,#384,#385),.UNSPECIFIED.,.F.,.U.,(4,2,2,2,4),(0.0,0.16007403968426,0.32014807936852,0.419382846614504,0.518617613860488),.UNSPECIFIED.);
#387=EDGE_CURVE('',#373,#375,#386,.T.);
#388=ORIENTED_EDGE('',*,*,#387,.T.);
#389=CARTESIAN_POINT('',(-1.354479523298488,0.12,0.195383385546064));
#390=VERTEX_POINT('',#389);
#391=CARTESIAN_POINT('',(-1.21,0.12,0.0));
#392=DIRECTION('',(0.0,1.0,0.0));
#393=DIRECTION('',(-1.0,0.0,0.0));
#394=AXIS2_PLACEMENT_3D('',#391,#392,#393);
#395=CIRCLE('',#394,0.243);
#396=EDGE_CURVE('',#375,#390,#395,.T.);
#397=ORIENTED_EDGE('',*,*,#396,.T.);
#398=CARTESIAN_POINT('',(-1.170165975103735,0.213,0.144614143362825));
#399=VERTEX_POINT('',#398);
#400=CARTESIAN_POINT('',(-1.354479523298488,0.12,0.195383385546064));
#401=CARTESIAN_POINT('',(-1.341924185715735,0.12,0.191925012677252));
#402=CARTESIAN_POINT('',(-1.328317651369775,0.121800443629372,0.188177087230368));
#403=CARTESIAN_POINT('',(-1.301786526148876,0.12860400533222,0.180869077944418));
#404=CARTESIAN_POINT('',(-1.28885368378077,0.133572457688317,0.177306721228187));
#405=CARTESIAN_POINT('',(-1.258962687158261,0.147600314156315,0.16907323399141));
#406=CARTESIAN_POINT('',(-1.239966528733125,0.159409386091285,0.163840734389059));
#407=CARTESIAN_POINT('',(-1.203564008298154,0.185670731649269,0.153813645256737));
#408=CARTESIAN_POINT('',(-1.186078091125761,0.200004162531813,0.148997142224723));
#409=CARTESIAN_POINT('',(-1.170165975103735,0.213,0.144614143362825));
#410=B_SPLINE_CURVE_WITH_KNOTS('',3,(#400,#401,#402,#403,#404,#405,#406,#407,#408,#409),.UNSPECIFIED.,.F.,.U.,(4,2,2,2,4),(1.284803519574139,1.384038286820123,1.483273054066107,1.643347093750367,1.803421133434627),.UNSPECIFIED.);
#411=EDGE_CURVE('',#390,#399,#410,.T.);
#412=ORIENTED_EDGE('',*,*,#411,.T.);
#413=CARTESIAN_POINT('',(-1.21,0.213,0.0));
#414=DIRECTION('',(0.0,-1.0,0.0));
#415=DIRECTION('',(-1.0,0.0,0.0));
#416=AXIS2_PLACEMENT_3D('',#413,#414,#415);
#417=CIRCLE('',#416,0.15);
#418=EDGE_CURVE('',#399,#373,#417,.T.);
#419=ORIENTED_EDGE('',*,*,#418,.T.);
#420=EDGE_LOOP('',(#388,#397,#412,#419));
#421=FACE_OUTER_BOUND('',#420,.T.);
#422=ADVANCED_FACE('',(#421),#371,.F.);
#423=CARTESIAN_POINT('',(-1.61238452849461,0.12,-1.121558E-017));
#424=DIRECTION('',(0.0,1.0,0.0));
#425=DIRECTION('',(0.0,0.0,1.0));
#426=AXIS2_PLACEMENT_3D('',#423,#424,#425);
#427=PLANE('',#426);
#428=ORIENTED_EDGE('',*,*,#396,.F.);
#429=CARTESIAN_POINT('',(-1.730176348547718,0.12,-0.298869229616505));
#430=VERTEX_POINT('',#429);
#431=CARTESIAN_POINT('',(-1.730176348547718,0.12,-0.298869229616505));
#432=DIRECTION('',(0.9640942890855,0.0,0.265560165975104));
#433=VECTOR('',#432,0.389688881577756);
#434=LINE('',#431,#433);
#435=EDGE_CURVE('',#430,#375,#434,.T.);
#436=ORIENTED_EDGE('',*,*,#435,.F.);
#437=CARTESIAN_POINT('',(-1.730176348547718,0.12,0.298869229616505));
#438=VERTEX_POINT('',#437);
#439=CARTESIAN_POINT('',(-1.8125,0.12,0.0));
#440=DIRECTION('',(0.0,-1.0,0.0));
#441=DIRECTION('',(-0.265560165975104,0.0,-0.9640942890855));
#442=AXIS2_PLACEMENT_3D('',#439,#440,#441);
#443=CIRCLE('',#442,0.31);
#444=EDGE_CURVE('',#438,#430,#443,.T.);
#445=ORIENTED_EDGE('',*,*,#444,.F.);
#446=CARTESIAN_POINT('',(-1.354479523298488,0.12,0.195383385546064));
#447=DIRECTION('',(-0.9640942890855,0.0,0.265560165975104));
#448=VECTOR('',#447,0.389688881577756);
#449=LINE('',#446,#448);
#450=EDGE_CURVE('',#390,#438,#449,.T.);
#451=ORIENTED_EDGE('',*,*,#450,.F.);
#452=EDGE_LOOP('',(#428,#436,#445,#451));
#453=FACE_OUTER_BOUND('',#452,.T.);
#454=ORIENTED_EDGE('',*,*,#114,.T.);
#455=EDGE_LOOP('',(#454));
#456=FACE_BOUND('',#455,.T.);
#457=ADVANCED_FACE('',(#453,#456),#427,.T.);
#458=CARTESIAN_POINT('',(-1.170165975103735,5.536473E-017,0.144614143362825));
#459=DIRECTION('',(0.265560165975104,0.0,0.9640942890855));
#460=DIRECTION('',(0.9640942890855,0.0,-0.265560165975104));
#461=AXIS2_PLACEMENT_3D('',#458,#459,#460);
#462=PLANE('',#461);
#463=ORIENTED_EDGE('',*,*,#450,.T.);
#464=CARTESIAN_POINT('',(-1.730176348547718,5.536473E-017,0.298869229616505));
#465=VERTEX_POINT('',#464);
#466=CARTESIAN_POINT('',(-1.730176348547718,5.536473E-017,0.298869229616505));
#467=DIRECTION('',(0.0,1.0,0.0));
#468=VECTOR('',#467,0.12);
#469=LINE('',#466,#468);
#470=EDGE_CURVE('',#465,#438,#469,.T.);
#471=ORIENTED_EDGE('',*,*,#470,.F.);
#472=CARTESIAN_POINT('',(-1.170165975103735,5.536473E-017,0.144614143362825));
#473=VERTEX_POINT('',#472);
#474=CARTESIAN_POINT('',(-1.730176348547718,5.536473E-017,0.298869229616505));
#475=DIRECTION('',(0.9640942890855,0.0,-0.265560165975104));
#476=VECTOR('',#475,0.580866809174013);
#477=LINE('',#474,#476);
#478=EDGE_CURVE('',#465,#473,#477,.T.);
#479=ORIENTED_EDGE('',*,*,#478,.T.);
#480=CARTESIAN_POINT('',(-1.170165975103735,0.213,0.144614143362825));
#481=DIRECTION('',(0.0,-1.0,0.0));
#482=VECTOR('',#481,0.213);
#483=LINE('',#480,#482);
#484=EDGE_CURVE('',#399,#473,#483,.T.);
#485=ORIENTED_EDGE('',*,*,#484,.F.);
#486=ORIENTED_EDGE('',*,*,#411,.F.);
#487=EDGE_LOOP('',(#463,#471,#479,#485,#486));
#488=FACE_OUTER_BOUND('',#487,.T.);
#489=ADVANCED_FACE('',(#488),#462,.T.);
#490=CARTESIAN_POINT('',(-1.8125,5.536473E-017,0.0));
#491=DIRECTION('',(0.0,1.0,0.0));
#492=DIRECTION('',(-0.265560165975104,0.0,-0.9640942890855));
#493=AXIS2_PLACEMENT_3D('',#490,#491,#492);
#494=CYLINDRICAL_SURFACE('',#493,0.31);
#495=ORIENTED_EDGE('',*,*,#444,.T.);
#496=CARTESIAN_POINT('',(-1.730176348547718,5.536473E-017,-0.298869229616505));
#497=VERTEX_POINT('',#496);
#498=CARTESIAN_POINT('',(-1.730176348547718,5.536473E-017,-0.298869229616505));
#499=DIRECTION('',(0.0,1.0,0.0));
#500=VECTOR('',#499,0.12);
#501=LINE('',#498,#500);
#502=EDGE_CURVE('',#497,#430,#501,.T.);
#503=ORIENTED_EDGE('',*,*,#502,.F.);
#504=CARTESIAN_POINT('',(-1.8125,5.536473E-017,0.0));
#505=DIRECTION('',(0.0,1.0,0.0));
#506=DIRECTION('',(-0.265560165975104,0.0,-0.9640942890855));
#507=AXIS2_PLACEMENT_3D('',#504,#505,#506);
#508=CIRCLE('',#507,0.31);
#509=EDGE_CURVE('',#497,#465,#508,.T.);
#510=ORIENTED_EDGE('',*,*,#509,.T.);
#511=ORIENTED_EDGE('',*,*,#470,.T.);
#512=EDGE_LOOP('',(#495,#503,#510,#511));
#513=FACE_OUTER_BOUND('',#512,.T.);
#514=ADVANCED_FACE('',(#513),#494,.T.);
#515=CARTESIAN_POINT('',(-1.730176348547718,5.536473E-017,-0.298869229616505));
#516=DIRECTION('',(0.265560165975104,0.0,-0.9640942890855));
#517=DIRECTION('',(-0.9640942890855,0.0,-0.265560165975104));
#518=AXIS2_PLACEMENT_3D('',#515,#516,#517);
#519=PLANE('',#518);
#520=ORIENTED_EDGE('',*,*,#435,.T.);
#521=ORIENTED_EDGE('',*,*,#387,.F.);
#522=CARTESIAN_POINT('',(-1.170165975103735,5.536473E-017,-0.144614143362825));
#523=VERTEX_POINT('',#522);
#524=CARTESIAN_POINT('',(-1.170165975103735,0.213,-0.144614143362825));
#525=DIRECTION('',(0.0,-1.0,0.0));
#526=VECTOR('',#525,0.213);
#527=LINE('',#524,#526);
#528=EDGE_CURVE('',#373,#523,#527,.T.);
#529=ORIENTED_EDGE('',*,*,#528,.T.);
#530=CARTESIAN_POINT('',(-1.170165975103735,5.536473E-017,-0.144614143362825));
#531=DIRECTION('',(-0.9640942890855,0.0,-0.265560165975104));
#532=VECTOR('',#531,0.580866809174014);
#533=LINE('',#530,#532);
#534=EDGE_CURVE('',#523,#497,#533,.T.);
#535=ORIENTED_EDGE('',*,*,#534,.T.);
#536=ORIENTED_EDGE('',*,*,#502,.T.);
#537=EDGE_LOOP('',(#520,#521,#529,#535,#536));
#538=FACE_OUTER_BOUND('',#537,.T.);
#539=ADVANCED_FACE('',(#538),#519,.T.);
#540=CARTESIAN_POINT('',(-1.21,0.36,0.0));
#541=DIRECTION('',(0.0,-1.0,0.0));
#542=DIRECTION('',(1.0,0.0,0.0));
#543=AXIS2_PLACEMENT_3D('',#540,#541,#542);
#544=CYLINDRICAL_SURFACE('',#543,0.15);
#545=ORIENTED_EDGE('',*,*,#484,.T.);
#546=CARTESIAN_POINT('',(-1.21,8.741914E-017,0.0));
#547=DIRECTION('',(0.0,1.0,0.0));
#548=DIRECTION('',(1.0,0.0,0.0));
#549=AXIS2_PLACEMENT_3D('',#546,#547,#548);
#550=CIRCLE('',#549,0.15);
#551=EDGE_CURVE('',#473,#523,#550,.T.);
#552=ORIENTED_EDGE('',*,*,#551,.T.);
#553=ORIENTED_EDGE('',*,*,#528,.F.);
#554=ORIENTED_EDGE('',*,*,#418,.F.);
#555=EDGE_LOOP('',(#545,#552,#553,#554));
#556=FACE_OUTER_BOUND('',#555,.T.);
#557=CARTESIAN_POINT('',(-1.36,0.36,1.836970E-017));
#558=VERTEX_POINT('',#557);
#559=CARTESIAN_POINT('',(-1.21,0.36,0.0));
#560=DIRECTION('',(0.0,1.0,0.0));
#561=DIRECTION('',(1.0,0.0,0.0));
#562=AXIS2_PLACEMENT_3D('',#559,#560,#561);
#563=CIRCLE('',#562,0.15);
#564=EDGE_CURVE('',#558,#558,#563,.T.);
#565=ORIENTED_EDGE('',*,*,#564,.F.);
#566=EDGE_LOOP('',(#565));
#567=FACE_BOUND('',#566,.T.);
#568=ADVANCED_FACE('',(#556,#567),#544,.T.);
#569=CARTESIAN_POINT('',(-0.92,0.36,0.0));
#570=DIRECTION('',(0.0,0.0,1.0));
#571=DIRECTION('',(1.0,0.0,0.0));
#572=AXIS2_PLACEMENT_3D('',#569,#570,#571);
#573=TOROIDAL_SURFACE('',#572,0.29,0.15);
#574=ORIENTED_EDGE('',*,*,#564,.T.);
#575=EDGE_LOOP('',(#574));
#576=FACE_OUTER_BOUND('',#575,.T.);
#577=CARTESIAN_POINT('',(-0.92,0.8,1.836970E-017));
#578=VERTEX_POINT('',#577);
#579=CARTESIAN_POINT('',(-0.92,0.65,0.0));
#580=DIRECTION('',(1.0,0.0,0.0));
#581=DIRECTION('',(0.0,-1.0,0.0));
#582=AXIS2_PLACEMENT_3D('',#579,#580,#581);
#583=CIRCLE('',#582,0.15);
#584=EDGE_CURVE('',#578,#578,#583,.T.);
#585=ORIENTED_EDGE('',*,*,#584,.F.);
#586=EDGE_LOOP('',(#585));
#587=FACE_BOUND('',#586,.T.);
#588=ADVANCED_FACE('',(#576,#587),#573,.T.);
#589=CARTESIAN_POINT('',(0.0,0.65,0.0));
#590=DIRECTION('',(-1.0,-3.800832E-016,0.0));
#591=DIRECTION('',(0.0,-1.0,0.0));
#592=AXIS2_PLACEMENT_3D('',#589,#590,#591);
#593=CYLINDRICAL_SURFACE('',#592,0.15);
#594=ORIENTED_EDGE('',*,*,#347,.F.);
#595=EDGE_LOOP('',(#594));
#596=FACE_OUTER_BOUND('',#595,.T.);
#597=ORIENTED_EDGE('',*,*,#584,.T.);
#598=EDGE_LOOP('',(#597));
#599=FACE_BOUND('',#598,.T.);
#600=ADVANCED_FACE('',(#596,#599),#593,.T.);
#601=CARTESIAN_POINT('',(-1.21,5.536473E-017,0.0));
#602=DIRECTION('',(0.0,-1.0,0.0));
#603=DIRECTION('',(0.0,0.0,-1.0));
#604=AXIS2_PLACEMENT_3D('',#601,#602,#603);
#605=PLANE('',#604);
#606=ORIENTED_EDGE('',*,*,#551,.F.);
#607=ORIENTED_EDGE('',*,*,#478,.F.);
#608=ORIENTED_EDGE('',*,*,#509,.F.);
#609=ORIENTED_EDGE('',*,*,#534,.F.);
#610=EDGE_LOOP('',(#606,#607,#608,#609));
#611=FACE_OUTER_BOUND('',#610,.T.);
#612=ORIENTED_EDGE('',*,*,#125,.T.);
#613=EDGE_LOOP('',(#612));
#614=FACE_BOUND('',#613,.T.);
#615=ADVANCED_FACE('',(#611,#614),#605,.T.);
#616=CLOSED_SHELL('',(#101,#129,#185,#220,#252,#277,#302,#331,#351,#366,#422,#457,#489,#514,#539,#568,#588,#600,#615));
#617=MANIFOLD_SOLID_BREP('Solid1',#616);
#618=COLOUR_RGB('Steel',0.878431379795074,0.874509811401367,0.858823537826538);
#619=FILL_AREA_STYLE_COLOUR('Steel',#618);
#620=FILL_AREA_STYLE('Steel',(#619));
#621=SURFACE_STYLE_FILL_AREA(#620);
#622=SURFACE_SIDE_STYLE('Steel',(#621));
#623=SURFACE_STYLE_USAGE(.BOTH.,#622);
#624=PRESENTATION_STYLE_ASSIGNMENT((#623));
#625=STYLED_ITEM('',(#624),#617);
#626=MECHANICAL_DESIGN_GEOMETRIC_PRESENTATION_REPRESENTATION('',(#625),#42);
#627=ADVANCED_BREP_SHAPE_REPRESENTATION('ABSR',(#617),#42);
#628=SHAPE_REPRESENTATION_RELATIONSHIP('SRR','None',#627,#47);
ENDSEC;
END-ISO-10303-21;
