ISO-10303-21;
HEADER;
/* Generated by software containing ST-Developer
 * from STEP Tools, Inc. (www.steptools.com) 
 */

FILE_DESCRIPTION(
/* description */ (
'SAFETY RETAINING CLIP 25 MM SIZE, FOR 10 MM BALL STUD'),
/* implementation_level */ '2;1');

FILE_NAME(
/* name */ '16299.stp',
/* time_stamp */ '2023-11-22T11:02:52-05:00',
/* author */ ('dtinay'),
/* organization */ ('Eberhard Manufacturing Company'),
/* preprocessor_version */ 'ST-DEVELOPER v20',
/* originating_system */ 'Autodesk Inventor 2024',
/* authorisation */ '');

FILE_SCHEMA (('AUTOMOTIVE_DESIGN { 1 0 10303 214 3 1 1 }'));
ENDSEC;

DATA;
#10=MECHANICAL_DESIGN_GEOMETRIC_PRESENTATION_REPRESENTATION('',(#13),#364);
#11=SHAPE_REPRESENTATION_RELATIONSHIP('SRR','None',#375,#12);
#12=ADVANCED_BREP_SHAPE_REPRESENTATION('',(#14),#363);
#13=STYLED_ITEM('',(#384),#14);
#14=MANIFOLD_SOLID_BREP('Solid2',#104);
#15=PLANE('',#141);
#16=PLANE('',#142);
#17=LINE('',#357,#18);
#18=VECTOR('',#173,0.01925);
#19=CYLINDRICAL_SURFACE('',#139,0.01925);
#20=B_SPLINE_CURVE_WITH_KNOTS('',3,(#340,#341,#342,#343,#344,#345,#346,
#347,#348,#349,#350,#351,#352,#353),.UNSPECIFIED.,.F.,.F.,(4,1,2,1,2,1,
2,1,4),(-0.299536532752378,-0.290207236600232,-0.280877940448086,-0.27154864429594,
-0.262219348143795,-0.25287022462977,-0.243521101115746,-0.234171977601722,
-0.224822854087698),.UNSPECIFIED.);
#21=B_SPLINE_SURFACE_WITH_KNOTS('',3,3,((#199,#200,#201,#202,#203,#204,
#205,#206,#207,#208,#209,#210,#211,#212),(#213,#214,#215,#216,#217,#218,
#219,#220,#221,#222,#223,#224,#225,#226),(#227,#228,#229,#230,#231,#232,
#233,#234,#235,#236,#237,#238,#239,#240),(#241,#242,#243,#244,#245,#246,
#247,#248,#249,#250,#251,#252,#253,#254),(#255,#256,#257,#258,#259,#260,
#261,#262,#263,#264,#265,#266,#267,#268),(#269,#270,#271,#272,#273,#274,
#275,#276,#277,#278,#279,#280,#281,#282),(#283,#284,#285,#286,#287,#288,
#289,#290,#291,#292,#293,#294,#295,#296),(#297,#298,#299,#300,#301,#302,
#303,#304,#305,#306,#307,#308,#309,#310),(#311,#312,#313,#314,#315,#316,
#317,#318,#319,#320,#321,#322,#323,#324),(#325,#326,#327,#328,#329,#330,
#331,#332,#333,#334,#335,#336,#337,#338)),.UNSPECIFIED.,.T.,.F.,.F.,(4,
1,1,1,1,1,1,4),(4,1,2,1,2,1,2,1,4),(-3.14159265358979,-2.24399475256414,
-1.34639685153848,-0.448798950512828,0.448798950512828,1.34639685153848,
2.24399475256414,3.14159265358979),(-0.299536532752378,-0.290207236600232,
-0.280877940448086,-0.27154864429594,-0.262219348143795,-0.25287022462977,
-0.243521101115746,-0.234171977601722,-0.224822854087698),.UNSPECIFIED.);
#22=FACE_OUTER_BOUND('',#29,.T.);
#23=FACE_OUTER_BOUND('',#30,.T.);
#24=FACE_OUTER_BOUND('',#31,.T.);
#25=FACE_OUTER_BOUND('',#32,.T.);
#26=FACE_OUTER_BOUND('',#33,.T.);
#27=FACE_OUTER_BOUND('',#34,.T.);
#28=FACE_OUTER_BOUND('',#35,.T.);
#29=EDGE_LOOP('',(#68,#69,#70,#71));
#30=EDGE_LOOP('',(#72,#73,#74,#75,#76));
#31=EDGE_LOOP('',(#77,#78,#79,#80,#81,#82));
#32=EDGE_LOOP('',(#83,#84,#85,#86,#87));
#33=EDGE_LOOP('',(#88,#89,#90,#91));
#34=EDGE_LOOP('',(#92));
#35=EDGE_LOOP('',(#93));
#36=CIRCLE('',#127,0.01925);
#37=CIRCLE('',#128,0.21075);
#38=CIRCLE('',#129,0.01925);
#39=CIRCLE('',#131,0.000250000000000068);
#40=CIRCLE('',#132,0.01925);
#41=CIRCLE('',#133,0.01925);
#42=CIRCLE('',#135,0.17175);
#43=CIRCLE('',#136,0.01925);
#44=CIRCLE('',#137,0.01925);
#45=CIRCLE('',#138,0.01925);
#46=CIRCLE('',#140,0.01925);
#47=VERTEX_POINT('',#182);
#48=VERTEX_POINT('',#184);
#49=VERTEX_POINT('',#188);
#50=VERTEX_POINT('',#190);
#51=VERTEX_POINT('',#194);
#52=VERTEX_POINT('',#196);
#53=VERTEX_POINT('',#339);
#54=VERTEX_POINT('',#356);
#55=EDGE_CURVE('',#47,#47,#36,.T.);
#56=EDGE_CURVE('',#47,#48,#37,.T.);
#57=EDGE_CURVE('',#48,#48,#38,.T.);
#58=EDGE_CURVE('',#48,#49,#39,.T.);
#59=EDGE_CURVE('',#50,#49,#40,.T.);
#60=EDGE_CURVE('',#49,#50,#41,.T.);
#61=EDGE_CURVE('',#50,#51,#42,.T.);
#62=EDGE_CURVE('',#52,#51,#43,.T.);
#63=EDGE_CURVE('',#51,#52,#44,.T.);
#64=EDGE_CURVE('',#53,#52,#20,.T.);
#65=EDGE_CURVE('',#53,#53,#45,.T.);
#66=EDGE_CURVE('',#53,#54,#17,.T.);
#67=EDGE_CURVE('',#54,#54,#46,.T.);
#68=ORIENTED_EDGE('',*,*,#55,.T.);
#69=ORIENTED_EDGE('',*,*,#56,.T.);
#70=ORIENTED_EDGE('',*,*,#57,.F.);
#71=ORIENTED_EDGE('',*,*,#56,.F.);
#72=ORIENTED_EDGE('',*,*,#57,.T.);
#73=ORIENTED_EDGE('',*,*,#58,.T.);
#74=ORIENTED_EDGE('',*,*,#59,.F.);
#75=ORIENTED_EDGE('',*,*,#60,.F.);
#76=ORIENTED_EDGE('',*,*,#58,.F.);
#77=ORIENTED_EDGE('',*,*,#59,.T.);
#78=ORIENTED_EDGE('',*,*,#60,.T.);
#79=ORIENTED_EDGE('',*,*,#61,.T.);
#80=ORIENTED_EDGE('',*,*,#62,.F.);
#81=ORIENTED_EDGE('',*,*,#63,.F.);
#82=ORIENTED_EDGE('',*,*,#61,.F.);
#83=ORIENTED_EDGE('',*,*,#62,.T.);
#84=ORIENTED_EDGE('',*,*,#63,.T.);
#85=ORIENTED_EDGE('',*,*,#64,.F.);
#86=ORIENTED_EDGE('',*,*,#65,.F.);
#87=ORIENTED_EDGE('',*,*,#64,.T.);
#88=ORIENTED_EDGE('',*,*,#65,.T.);
#89=ORIENTED_EDGE('',*,*,#66,.T.);
#90=ORIENTED_EDGE('',*,*,#67,.F.);
#91=ORIENTED_EDGE('',*,*,#66,.F.);
#92=ORIENTED_EDGE('',*,*,#55,.F.);
#93=ORIENTED_EDGE('',*,*,#67,.T.);
#94=TOROIDAL_SURFACE('',#126,0.23,0.01925);
#95=TOROIDAL_SURFACE('',#130,0.0195000000000001,0.01925);
#96=TOROIDAL_SURFACE('',#134,0.191,0.01925);
#97=ADVANCED_FACE('',(#22),#94,.T.);
#98=ADVANCED_FACE('',(#23),#95,.T.);
#99=ADVANCED_FACE('',(#24),#96,.T.);
#100=ADVANCED_FACE('',(#25),#21,.T.);
#101=ADVANCED_FACE('',(#26),#19,.T.);
#102=ADVANCED_FACE('',(#27),#15,.F.);
#103=ADVANCED_FACE('',(#28),#16,.T.);
#104=CLOSED_SHELL('',(#97,#98,#99,#100,#101,#102,#103));
#105=DERIVED_UNIT_ELEMENT(#107,1.);
#106=DERIVED_UNIT_ELEMENT(#369,-3.);
#107=(
CONVERSION_BASED_UNIT('gram',#109)
MASS_UNIT()
NAMED_UNIT(#366)
);
#108=(
MASS_UNIT()
NAMED_UNIT(*)
SI_UNIT(.KILO.,.GRAM.)
);
#109=MASS_MEASURE_WITH_UNIT(MASS_MEASURE(0.001),#108);
#110=DERIVED_UNIT((#105,#106));
#111=MEASURE_REPRESENTATION_ITEM('density measure',
POSITIVE_RATIO_MEASURE(7.85),#110);
#112=PROPERTY_DEFINITION_REPRESENTATION(#117,#114);
#113=PROPERTY_DEFINITION_REPRESENTATION(#118,#115);
#114=REPRESENTATION('material name',(#116),#363);
#115=REPRESENTATION('density',(#111),#363);
#116=DESCRIPTIVE_REPRESENTATION_ITEM('SEE ABOVE','SEE ABOVE');
#117=PROPERTY_DEFINITION('material property','material name',#377);
#118=PROPERTY_DEFINITION('material property','density of part',#377);
#119=DATE_TIME_ROLE('creation_date');
#120=APPLIED_DATE_AND_TIME_ASSIGNMENT(#121,#119,(#377));
#121=DATE_AND_TIME(#122,#123);
#122=CALENDAR_DATE(2012,8,8);
#123=LOCAL_TIME(0,0,0.,#124);
#124=COORDINATED_UNIVERSAL_TIME_OFFSET(0,0,.BEHIND.);
#125=AXIS2_PLACEMENT_3D('',#180,#143,#144);
#126=AXIS2_PLACEMENT_3D('',#181,#145,#146);
#127=AXIS2_PLACEMENT_3D('',#183,#147,#148);
#128=AXIS2_PLACEMENT_3D('',#185,#149,#150);
#129=AXIS2_PLACEMENT_3D('',#186,#151,#152);
#130=AXIS2_PLACEMENT_3D('',#187,#153,#154);
#131=AXIS2_PLACEMENT_3D('',#189,#155,#156);
#132=AXIS2_PLACEMENT_3D('',#191,#157,#158);
#133=AXIS2_PLACEMENT_3D('',#192,#159,#160);
#134=AXIS2_PLACEMENT_3D('',#193,#161,#162);
#135=AXIS2_PLACEMENT_3D('',#195,#163,#164);
#136=AXIS2_PLACEMENT_3D('',#197,#165,#166);
#137=AXIS2_PLACEMENT_3D('',#198,#167,#168);
#138=AXIS2_PLACEMENT_3D('',#354,#169,#170);
#139=AXIS2_PLACEMENT_3D('',#355,#171,#172);
#140=AXIS2_PLACEMENT_3D('',#358,#174,#175);
#141=AXIS2_PLACEMENT_3D('',#359,#176,#177);
#142=AXIS2_PLACEMENT_3D('',#360,#178,#179);
#143=DIRECTION('axis',(0.,0.,1.));
#144=DIRECTION('refdir',(1.,0.,0.));
#145=DIRECTION('center_axis',(0.,0.,1.));
#146=DIRECTION('ref_axis',(1.,0.,0.));
#147=DIRECTION('center_axis',(-0.0746317454117258,-0.997211162481046,1.19744452408853E-15));
#148=DIRECTION('ref_axis',(-0.870360854541549,0.0651382095953133,-0.488087078841903));
#149=DIRECTION('center_axis',(0.,0.,-1.));
#150=DIRECTION('ref_axis',(1.,0.,0.));
#151=DIRECTION('center_axis',(-0.459005322946439,-0.888433516649859,1.19744452408853E-15));
#152=DIRECTION('ref_axis',(-0.775420275913149,0.400617522295711,-0.488087078841903));
#153=DIRECTION('center_axis',(0.,0.,1.));
#154=DIRECTION('ref_axis',(-0.459005322946403,-0.888433516649878,0.));
#155=DIRECTION('center_axis',(0.,0.,-1.));
#156=DIRECTION('ref_axis',(-0.459005322946405,-0.888433516649876,0.));
#157=DIRECTION('center_axis',(0.459005322946439,0.888433516649859,1.19744452408853E-15));
#158=DIRECTION('ref_axis',(0.775420275913149,-0.400617522295711,-0.488087078841903));
#159=DIRECTION('center_axis',(0.459005322946439,0.888433516649859,1.19744452408853E-15));
#160=DIRECTION('ref_axis',(0.775420275913149,-0.400617522295711,-0.488087078841903));
#161=DIRECTION('center_axis',(0.,0.,-1.));
#162=DIRECTION('ref_axis',(0.00909739777947205,0.999958617820579,0.));
#163=DIRECTION('center_axis',(0.,0.,1.));
#164=DIRECTION('ref_axis',(0.00909739777947205,0.999958617820579,0.));
#165=DIRECTION('center_axis',(0.442765148690237,-0.896637620839831,1.19744452408853E-15));
#166=DIRECTION('ref_axis',(-0.782580776519426,-0.386443180415738,-0.488087078841903));
#167=DIRECTION('center_axis',(0.442765148690237,-0.896637620839831,1.19744452408853E-15));
#168=DIRECTION('ref_axis',(-0.782580776519426,-0.386443180415738,-0.488087078841903));
#169=DIRECTION('center_axis',(0.,0.,-1.));
#170=DIRECTION('ref_axis',(-1.,0.,0.));
#171=DIRECTION('center_axis',(0.,0.,1.));
#172=DIRECTION('ref_axis',(-1.,0.,0.));
#173=DIRECTION('',(0.,0.,-1.));
#174=DIRECTION('center_axis',(0.,0.,-1.));
#175=DIRECTION('ref_axis',(-1.,0.,0.));
#176=DIRECTION('center_axis',(-0.0746317454117264,-0.997211162481046,0.));
#177=DIRECTION('ref_axis',(0.,0.,-1.));
#178=DIRECTION('center_axis',(0.,0.,-1.));
#179=DIRECTION('ref_axis',(-1.,0.,0.));
#180=CARTESIAN_POINT('',(0.,0.,0.));
#181=CARTESIAN_POINT('Origin',(0.,0.,1.22933159714892E-17));
#182=CARTESIAN_POINT('',(0.21016225249288,-0.0157286403455214,9.93587088313053E-18));
#183=CARTESIAN_POINT('Origin',(0.229358567370641,-0.0171653014446971,1.22933159714892E-17));
#184=CARTESIAN_POINT('',(0.187237363633958,-0.0967353718109623,9.93587088313053E-18));
#185=CARTESIAN_POINT('Origin',(0.,0.,9.93587088313053E-18));
#186=CARTESIAN_POINT('Origin',(0.204339708829467,-0.105571224277681,1.22933159714892E-17));
#187=CARTESIAN_POINT('Origin',(0.187015255254795,-0.0966206204802256,1.22933159714892E-17));
#188=CARTESIAN_POINT('',(0.186793146875633,-0.0965058691494889,9.93587088313053E-18));
#189=CARTESIAN_POINT('Origin',(0.187015255254795,-0.0966206204802256,9.93587088313053E-18));
#190=CARTESIAN_POINT('',(0.152588456484613,-0.078834164216051,1.46507610598478E-17));
#191=CARTESIAN_POINT('Origin',(0.169690801680123,-0.08767001668277,1.22933159714892E-17));
#192=CARTESIAN_POINT('Origin',(0.169690801680123,-0.08767001668277,1.22933159714892E-17));
#193=CARTESIAN_POINT('Origin',(0.,0.,1.22933159714892E-17));
#194=CARTESIAN_POINT('',(-0.153997511379241,-0.076044914287548,1.46507610598478E-17));
#195=CARTESIAN_POINT('Origin',(0.,0.,1.46507610598478E-17));
#196=CARTESIAN_POINT('',(-0.156193105632409,-0.0771291121768321,0.00939567626770665));
#197=CARTESIAN_POINT('Origin',(-0.171257785580408,-0.0845681433998351,1.22933159714892E-17));
#198=CARTESIAN_POINT('Origin',(-0.171257785580408,-0.0845681433998351,1.22933159714892E-17));
#199=CARTESIAN_POINT('Ctrl Pts',(-0.142478997230432,-0.101610685731566,
-0.0195));
#200=CARTESIAN_POINT('Ctrl Pts',(-0.142478997230432,-0.101610685731566,
-0.0176327050197738));
#201=CARTESIAN_POINT('Ctrl Pts',(-0.142670389400332,-0.101318123533751,
-0.0137685056818076));
#202=CARTESIAN_POINT('Ctrl Pts',(-0.143274890945532,-0.100341824815582,
-0.00997190821978477));
#203=CARTESIAN_POINT('Ctrl Pts',(-0.144062055397922,-0.0990609356306646,
-0.00635568738068404));
#204=CARTESIAN_POINT('Ctrl Pts',(-0.145033414160668,-0.0974762349761499,
-0.00291003557781289));
#205=CARTESIAN_POINT('Ctrl Pts',(-0.14626229848012,-0.0954228434544601,
-2.8110137624884E-5));
#206=CARTESIAN_POINT('Ctrl Pts',(-0.147544662192041,-0.0932400907364201,
0.0025032497723975));
#207=CARTESIAN_POINT('Ctrl Pts',(-0.148969157580721,-0.0907775356235502,
0.00485510290759153));
#208=CARTESIAN_POINT('Ctrl Pts',(-0.150567711754,-0.087904521926673,0.00661588934023554));
#209=CARTESIAN_POINT('Ctrl Pts',(-0.152193394101741,-0.0849180406572007,
0.00802374765318196));
#210=CARTESIAN_POINT('Ctrl Pts',(-0.153849293801595,-0.0818087434765056,
0.00907977364164531));
#211=CARTESIAN_POINT('Ctrl Pts',(-0.155438635033794,-0.0786569802227637,
0.00939567626770665));
#212=CARTESIAN_POINT('Ctrl Pts',(-0.156193105632409,-0.0771291121768322,
0.00939567626770665));
#213=CARTESIAN_POINT('Ctrl Pts',(-0.142478997230432,-0.0958510991999844,
-0.0195));
#214=CARTESIAN_POINT('Ctrl Pts',(-0.142478915191934,-0.0958510015200607,
-0.0179388875706481));
#215=CARTESIAN_POINT('Ctrl Pts',(-0.142635816320316,-0.0956080338294377,
-0.0147076381975579));
#216=CARTESIAN_POINT('Ctrl Pts',(-0.143142420666771,-0.0947921966420851,
-0.0115423193281076));
#217=CARTESIAN_POINT('Ctrl Pts',(-0.143798965193725,-0.0937260927109715,
-0.00853556599820964));
#218=CARTESIAN_POINT('Ctrl Pts',(-0.144605182384649,-0.092410797415301,
-0.00567858645791356));
#219=CARTESIAN_POINT('Ctrl Pts',(-0.145616672533106,-0.0907194741512912,
-0.00330498459738146));
#220=CARTESIAN_POINT('Ctrl Pts',(-0.146668964779982,-0.0889281281341263,
-0.00122720422892278));
#221=CARTESIAN_POINT('Ctrl Pts',(-0.147834642656781,-0.086913582383632,
0.000694051337535521));
#222=CARTESIAN_POINT('Ctrl Pts',(-0.149132450580769,-0.0845813928854087,
0.00212224465533433));
#223=CARTESIAN_POINT('Ctrl Pts',(-0.150447375832218,-0.0821638890864825,
0.00326319884999079));
#224=CARTESIAN_POINT('Ctrl Pts',(-0.151783122783574,-0.0796534598033123,
0.0041170973001217));
#225=CARTESIAN_POINT('Ctrl Pts',(-0.153064430556751,-0.077115510580674,
0.0043686166285693));
#226=CARTESIAN_POINT('Ctrl Pts',(-0.153672496095685,-0.0758844197499493,
0.00436873829906115));
#227=CARTESIAN_POINT('Ctrl Pts',(-0.147974534392856,-0.0843924203052918,
-0.0195000000000001));
#228=CARTESIAN_POINT('Ctrl Pts',(-0.147974563959678,-0.0843925066012896,
-0.0187316871349444));
#229=CARTESIAN_POINT('Ctrl Pts',(-0.148043661469062,-0.0842748503156589,
-0.0171398511301261));
#230=CARTESIAN_POINT('Ctrl Pts',(-0.148297022513801,-0.0838746394756749,
-0.0155988357169474));
#231=CARTESIAN_POINT('Ctrl Pts',(-0.148617620566787,-0.0833597224000153,
-0.0141515852831301));
#232=CARTESIAN_POINT('Ctrl Pts',(-0.149003071779566,-0.0827316418904624,
-0.0127916539439943));
#233=CARTESIAN_POINT('Ctrl Pts',(-0.149469382085295,-0.0819479056771471,
-0.011693432804722));
#234=CARTESIAN_POINT('Ctrl Pts',(-0.149948230579062,-0.0811319975890354,
-0.0107467068915552));
#235=CARTESIAN_POINT('Ctrl Pts',(-0.15047312047651,-0.0802275608343678,
-0.00988825009835964));
#236=CARTESIAN_POINT('Ctrl Pts',(-0.151036801901672,-0.0792147829715917,
-0.00927105875907881));
#237=CARTESIAN_POINT('Ctrl Pts',(-0.151597908838379,-0.0781785351918128,
-0.00877938712325231));
#238=CARTESIAN_POINT('Ctrl Pts',(-0.152160323014595,-0.0771140215474748,
-0.00841453809502517));
#239=CARTESIAN_POINT('Ctrl Pts',(-0.152702582447467,-0.0760501485934975,
-0.00831455956165166));
#240=CARTESIAN_POINT('Ctrl Pts',(-0.152958453262951,-0.0755318210259403,
-0.00831463931449707));
#241=CARTESIAN_POINT('Ctrl Pts',(-0.166637621380923,-0.0801229662296735,
-0.0195));
#242=CARTESIAN_POINT('Ctrl Pts',(-0.166637585205537,-0.0801229632584115,
-0.0195820194669568));
#243=CARTESIAN_POINT('Ctrl Pts',(-0.166616935985805,-0.0801330787682518,
-0.0197506939514109));
#244=CARTESIAN_POINT('Ctrl Pts',(-0.166597719198234,-0.0801798525336932,
-0.0199294925070673));
#245=CARTESIAN_POINT('Ctrl Pts',(-0.166565096772694,-0.0802453042875727,
-0.0201113101378826));
#246=CARTESIAN_POINT('Ctrl Pts',(-0.16651478782736,-0.0803286435493017,
-0.0202953949902544));
#247=CARTESIAN_POINT('Ctrl Pts',(-0.166436375517997,-0.0804519343692716,
-0.0204712218212002));
#248=CARTESIAN_POINT('Ctrl Pts',(-0.166352479830177,-0.0805932588683218,
-0.0206351027446312));
#249=CARTESIAN_POINT('Ctrl Pts',(-0.16625765337347,-0.0807626710095106,
-0.0207989104561995));
#250=CARTESIAN_POINT('Ctrl Pts',(-0.166137393722131,-0.0809801690056152,
-0.0209335309327619));
#251=CARTESIAN_POINT('Ctrl Pts',(-0.166006708640968,-0.0812101155150203,
-0.0210410643731247));
#252=CARTESIAN_POINT('Ctrl Pts',(-0.165869123587379,-0.0814539444183283,
-0.021122503185059));
#253=CARTESIAN_POINT('Ctrl Pts',(-0.165752784549279,-0.0817049976155751,
-0.0211502343010645));
#254=CARTESIAN_POINT('Ctrl Pts',(-0.165695354284591,-0.0818213807584632,
-0.0211502088290889));
#255=CARTESIAN_POINT('Ctrl Pts',(-0.181587027387723,-0.0920510671856768,
-0.0195));
#256=CARTESIAN_POINT('Ctrl Pts',(-0.181587060478069,-0.092051013357612,
-0.0194471395521175));
#257=CARTESIAN_POINT('Ctrl Pts',(-0.181586543029546,-0.0920314351982534,
-0.0193394386691711));
#258=CARTESIAN_POINT('Ctrl Pts',(-0.181609676554091,-0.092008732114583,
-0.0192137091269966));
#259=CARTESIAN_POINT('Ctrl Pts',(-0.181642438373368,-0.0919668324050781,
-0.0190761561218483));
#260=CARTESIAN_POINT('Ctrl Pts',(-0.18168313279978,-0.0919018373019204,
-0.0189285268677886));
#261=CARTESIAN_POINT('Ctrl Pts',(-0.181747557952599,-0.0917872390098008,
-0.0187703320531202));
#262=CARTESIAN_POINT('Ctrl Pts',(-0.18182609727484,-0.0916521579530886,
-0.0186148720658036));
#263=CARTESIAN_POINT('Ctrl Pts',(-0.181924493559851,-0.091487733749362,
-0.0184505172507942));
#264=CARTESIAN_POINT('Ctrl Pts',(-0.182057831464007,-0.091249890062019,
-0.0183007977927717));
#265=CARTESIAN_POINT('Ctrl Pts',(-0.182200974568618,-0.0909775621566979,
-0.0181770602583584));
#266=CARTESIAN_POINT('Ctrl Pts',(-0.182355880427087,-0.0906735855613032,
-0.0180775206639844));
#267=CARTESIAN_POINT('Ctrl Pts',(-0.182532604151456,-0.0903423979606599,
-0.0180360510406611));
#268=CARTESIAN_POINT('Ctrl Pts',(-0.182614653192556,-0.09017623418264,-0.0180360346052778));
#269=CARTESIAN_POINT('Ctrl Pts',(-0.181573597105582,-0.111162989771598,
-0.0195));
#270=CARTESIAN_POINT('Ctrl Pts',(-0.181573575327363,-0.11116298698877,-0.0184306974892348));
#271=CARTESIAN_POINT('Ctrl Pts',(-0.181687876914758,-0.110978850377839,
-0.0162217368877813));
#272=CARTESIAN_POINT('Ctrl Pts',(-0.182035576581919,-0.110423691837854,
-0.0140006319854472));
#273=CARTESIAN_POINT('Ctrl Pts',(-0.182502569552006,-0.109668818765374,
-0.0118396184302771));
#274=CARTESIAN_POINT('Ctrl Pts',(-0.183091405522519,-0.108708997896728,
-0.00973797967211486));
#275=CARTESIAN_POINT('Ctrl Pts',(-0.183877232533679,-0.107393237361392,
-0.00789258321945508));
#276=CARTESIAN_POINT('Ctrl Pts',(-0.184719713960334,-0.105958598766783,
-0.0062307841779096));
#277=CARTESIAN_POINT('Ctrl Pts',(-0.185677151543884,-0.104306618665886,
-0.00463794288467707));
#278=CARTESIAN_POINT('Ctrl Pts',(-0.186808821908193,-0.102274330023495,
-0.0033837383195845));
#279=CARTESIAN_POINT('Ctrl Pts',(-0.187983159319888,-0.100112792951792,
-0.00237388722416239));
#280=CARTESIAN_POINT('Ctrl Pts',(-0.189200909264593,-0.0978210309944568,
-0.00160381201955967));
#281=CARTESIAN_POINT('Ctrl Pts',(-0.190399625503275,-0.0954527090422653,
-0.00134870620640105));
#282=CARTESIAN_POINT('Ctrl Pts',(-0.190968231908778,-0.0943012825147848,
-0.00134869017328168));
#283=CARTESIAN_POINT('Ctrl Pts',(-0.166636868895713,-0.123108880554423,
-0.0195));
#284=CARTESIAN_POINT('Ctrl Pts',(-0.166636928333268,-0.123108882648186,
-0.0172966610598261));
#285=CARTESIAN_POINT('Ctrl Pts',(-0.166874235714484,-0.122749146758108,
-0.0127415003674634));
#286=CARTESIAN_POINT('Ctrl Pts',(-0.16758488639953,-0.121598708414754,-0.00820924541847883));
#287=CARTESIAN_POINT('Ctrl Pts',(-0.168528227409383,-0.120061389475141,
-0.00384175744229262));
#288=CARTESIAN_POINT('Ctrl Pts',(-0.169710350151169,-0.118132994661397,
0.000367166801547794));
#289=CARTESIAN_POINT('Ctrl Pts',(-0.171253934062174,-0.115555513168579,
0.00398494367675063));
#290=CARTESIAN_POINT('Ctrl Pts',(-0.172887596036154,-0.112775027490496,
0.007207517025914));
#291=CARTESIAN_POINT('Ctrl Pts',(-0.174724217478608,-0.109600038212101,
0.0102557537191717));
#292=CARTESIAN_POINT('Ctrl Pts',(-0.176848641608364,-0.10578258703922,0.0126044109821705));
#293=CARTESIAN_POINT('Ctrl Pts',(-0.179036695482599,-0.101764830222797,
0.0144890723206972));
#294=CARTESIAN_POINT('Ctrl Pts',(-0.181288828144893,-0.0975391772934168,
0.015915490676167));
#295=CARTESIAN_POINT('Ctrl Pts',(-0.183470575868196,-0.0932096716425422,
0.0163680867612177));
#296=CARTESIAN_POINT('Ctrl Pts',(-0.184507002184957,-0.0911106877049109,
0.0163680468690153));
#297=CARTESIAN_POINT('Ctrl Pts',(-0.147985666876422,-0.118825027114121,
-0.0195000000000001));
#298=CARTESIAN_POINT('Ctrl Pts',(-0.147985600886977,-0.118825022253774,
-0.016901494383828));
#299=CARTESIAN_POINT('Ctrl Pts',(-0.14826145167935,-0.1184111752837,-0.0115265351048195));
#300=CARTESIAN_POINT('Ctrl Pts',(-0.149099118364287,-0.117052302025337,
-0.00621280349392932));
#301=CARTESIAN_POINT('Ctrl Pts',(-0.15020162485751,-0.115253790237177,-0.00112212046767113));
#302=CARTESIAN_POINT('Ctrl Pts',(-0.151574042641737,-0.113014373496258,
0.00375595894667698));
#303=CARTESIAN_POINT('Ctrl Pts',(-0.153339252956039,-0.110067999547532,
0.00789224959653534));
#304=CARTESIAN_POINT('Ctrl Pts',(-0.155193754157642,-0.106911954239248,
0.0115514450572864));
#305=CARTESIAN_POINT('Ctrl Pts',(-0.157265465791966,-0.103328850903241,
0.014981974251254));
#306=CARTESIAN_POINT('Ctrl Pts',(-0.159626913168557,-0.0990848731927716,
0.0175882218880701));
#307=CARTESIAN_POINT('Ctrl Pts',(-0.162044933281148,-0.0946464009352322,
0.0196755291215028));
#308=CARTESIAN_POINT('Ctrl Pts',(-0.164521345061102,-0.0900023007667503,
0.0212478235719242));
#309=CARTESIAN_POINT('Ctrl Pts',(-0.166903936487736,-0.0852699770384344,
0.021732485910996));
#310=CARTESIAN_POINT('Ctrl Pts',(-0.168036156241772,-0.0829772831013235,
0.0217325319824837));
#311=CARTESIAN_POINT('Ctrl Pts',(-0.142478997230432,-0.107370272263147,
-0.0195));
#312=CARTESIAN_POINT('Ctrl Pts',(-0.14247907926893,-0.107370369943071,-0.0173265224688996));
#313=CARTESIAN_POINT('Ctrl Pts',(-0.142704962480348,-0.107028213238065,
-0.0128293731660573));
#314=CARTESIAN_POINT('Ctrl Pts',(-0.143407361224294,-0.105891452989079,
-0.00840149711146192));
#315=CARTESIAN_POINT('Ctrl Pts',(-0.144325145602118,-0.104395778550358,
-0.00417580876315842));
#316=CARTESIAN_POINT('Ctrl Pts',(-0.145461645936686,-0.102541672536999,
-0.000141484697712233));
#317=CARTESIAN_POINT('Ctrl Pts',(-0.146907924427134,-0.100126212757629,
0.00324876432213169));
#318=CARTESIAN_POINT('Ctrl Pts',(-0.148420359604099,-0.0975520533387139,
0.00623370377371777));
#319=CARTESIAN_POINT('Ctrl Pts',(-0.150103672504661,-0.0946414888634684,
0.00901615447764754));
#320=CARTESIAN_POINT('Ctrl Pts',(-0.152002972927231,-0.0912276509679374,
0.0111095340251368));
#321=CARTESIAN_POINT('Ctrl Pts',(-0.153939412371263,-0.0876721922279189,
0.0127842964563731));
#322=CARTESIAN_POINT('Ctrl Pts',(-0.155915464819616,-0.083964027149699,
0.0140424499831689));
#323=CARTESIAN_POINT('Ctrl Pts',(-0.157812839510837,-0.0801984498648534,
0.014422735906844));
#324=CARTESIAN_POINT('Ctrl Pts',(-0.158713715169133,-0.078373804603715,
0.0144226142363521));
#325=CARTESIAN_POINT('Ctrl Pts',(-0.142478997230432,-0.101610685731566,
-0.0195));
#326=CARTESIAN_POINT('Ctrl Pts',(-0.142478997230432,-0.101610685731566,
-0.0176327050197738));
#327=CARTESIAN_POINT('Ctrl Pts',(-0.142670389400332,-0.101318123533751,
-0.0137685056818076));
#328=CARTESIAN_POINT('Ctrl Pts',(-0.143274890945532,-0.100341824815582,
-0.00997190821978477));
#329=CARTESIAN_POINT('Ctrl Pts',(-0.144062055397922,-0.0990609356306646,
-0.00635568738068404));
#330=CARTESIAN_POINT('Ctrl Pts',(-0.145033414160668,-0.0974762349761499,
-0.00291003557781289));
#331=CARTESIAN_POINT('Ctrl Pts',(-0.14626229848012,-0.0954228434544601,
-2.8110137624884E-5));
#332=CARTESIAN_POINT('Ctrl Pts',(-0.147544662192041,-0.0932400907364201,
0.0025032497723975));
#333=CARTESIAN_POINT('Ctrl Pts',(-0.148969157580721,-0.0907775356235502,
0.00485510290759153));
#334=CARTESIAN_POINT('Ctrl Pts',(-0.150567711754,-0.087904521926673,0.00661588934023554));
#335=CARTESIAN_POINT('Ctrl Pts',(-0.152193394101741,-0.0849180406572007,
0.00802374765318196));
#336=CARTESIAN_POINT('Ctrl Pts',(-0.153849293801595,-0.0818087434765056,
0.00907977364164531));
#337=CARTESIAN_POINT('Ctrl Pts',(-0.155438635033794,-0.0786569802227637,
0.00939567626770665));
#338=CARTESIAN_POINT('Ctrl Pts',(-0.156193105632409,-0.0771291121768322,
0.00939567626770665));
#339=CARTESIAN_POINT('',(-0.142478997230432,-0.101610685731566,-0.0195));
#340=CARTESIAN_POINT('Ctrl Pts',(-0.142478997230432,-0.101610685731566,
-0.0195));
#341=CARTESIAN_POINT('Ctrl Pts',(-0.142478997230432,-0.101610685731566,
-0.0176327050197738));
#342=CARTESIAN_POINT('Ctrl Pts',(-0.142670389400332,-0.101318123533751,
-0.0137685056818076));
#343=CARTESIAN_POINT('Ctrl Pts',(-0.143274890945532,-0.100341824815582,
-0.00997190821978477));
#344=CARTESIAN_POINT('Ctrl Pts',(-0.144062055397922,-0.0990609356306646,
-0.00635568738068404));
#345=CARTESIAN_POINT('Ctrl Pts',(-0.145033414160668,-0.0974762349761499,
-0.00291003557781289));
#346=CARTESIAN_POINT('Ctrl Pts',(-0.14626229848012,-0.0954228434544601,
-2.8110137624884E-5));
#347=CARTESIAN_POINT('Ctrl Pts',(-0.147544662192041,-0.0932400907364201,
0.0025032497723975));
#348=CARTESIAN_POINT('Ctrl Pts',(-0.148969157580721,-0.0907775356235502,
0.00485510290759153));
#349=CARTESIAN_POINT('Ctrl Pts',(-0.150567711754,-0.087904521926673,0.00661588934023554));
#350=CARTESIAN_POINT('Ctrl Pts',(-0.152193394101741,-0.0849180406572007,
0.00802374765318196));
#351=CARTESIAN_POINT('Ctrl Pts',(-0.153849293801595,-0.0818087434765056,
0.00907977364164531));
#352=CARTESIAN_POINT('Ctrl Pts',(-0.155438635033794,-0.0786569802227637,
0.00939567626770665));
#353=CARTESIAN_POINT('Ctrl Pts',(-0.156193105632409,-0.0771291121768322,
0.00939567626770665));
#354=CARTESIAN_POINT('Origin',(-0.161728997230432,-0.101610685731566,-0.0195));
#355=CARTESIAN_POINT('Origin',(-0.161728997230432,-0.101610685731566,-0.4725));
#356=CARTESIAN_POINT('',(-0.142478997230432,-0.101610685731566,-0.4725));
#357=CARTESIAN_POINT('',(-0.142478997230432,-0.101610685731566,-0.4725));
#358=CARTESIAN_POINT('Origin',(-0.161728997230432,-0.101610685731566,-0.4725));
#359=CARTESIAN_POINT('Origin',(0.229358567370641,-0.0171653014446971,0.));
#360=CARTESIAN_POINT('Origin',(-0.161728997230432,-0.101610685731566,-0.4725));
#361=UNCERTAINTY_MEASURE_WITH_UNIT(LENGTH_MEASURE(0.000393700787401575),
#367,'DISTANCE_ACCURACY_VALUE',
'Maximum model space distance between geometric entities at asserted c
onnectivities');
#362=UNCERTAINTY_MEASURE_WITH_UNIT(LENGTH_MEASURE(0.000393700787401575),
#367,'DISTANCE_ACCURACY_VALUE',
'Maximum model space distance between geometric entities at asserted c
onnectivities');
#363=(
GEOMETRIC_REPRESENTATION_CONTEXT(3)
GLOBAL_UNCERTAINTY_ASSIGNED_CONTEXT((#361))
GLOBAL_UNIT_ASSIGNED_CONTEXT((#367,#371,#372))
REPRESENTATION_CONTEXT('','3D')
);
#364=(
GEOMETRIC_REPRESENTATION_CONTEXT(3)
GLOBAL_UNCERTAINTY_ASSIGNED_CONTEXT((#362))
GLOBAL_UNIT_ASSIGNED_CONTEXT((#367,#371,#372))
REPRESENTATION_CONTEXT('','3D')
);
#365=DIMENSIONAL_EXPONENTS(1.,0.,0.,0.,0.,0.,0.);
#366=DIMENSIONAL_EXPONENTS(0.,1.,0.,0.,0.,0.,0.);
#367=(
CONVERSION_BASED_UNIT('inch',#370)
LENGTH_UNIT()
NAMED_UNIT(#365)
);
#368=(
LENGTH_UNIT()
NAMED_UNIT(*)
SI_UNIT(.MILLI.,.METRE.)
);
#369=(
LENGTH_UNIT()
NAMED_UNIT(*)
SI_UNIT(.CENTI.,.METRE.)
);
#370=LENGTH_MEASURE_WITH_UNIT(LENGTH_MEASURE(25.4),#368);
#371=(
NAMED_UNIT(*)
PLANE_ANGLE_UNIT()
SI_UNIT($,.RADIAN.)
);
#372=(
NAMED_UNIT(*)
SI_UNIT($,.STERADIAN.)
SOLID_ANGLE_UNIT()
);
#373=SHAPE_DEFINITION_REPRESENTATION(#374,#375);
#374=PRODUCT_DEFINITION_SHAPE('',$,#377);
#375=SHAPE_REPRESENTATION('',(#125),#363);
#376=PRODUCT_DEFINITION_CONTEXT('part definition',#381,'design');
#377=PRODUCT_DEFINITION('16299','16299',#378,#376);
#378=PRODUCT_DEFINITION_FORMATION('',$,#383);
#379=PRODUCT_RELATED_PRODUCT_CATEGORY('16299','16299',(#383));
#380=APPLICATION_PROTOCOL_DEFINITION('international standard',
'automotive_design',2009,#381);
#381=APPLICATION_CONTEXT(
'Core Data for Automotive Mechanical Design Process');
#382=PRODUCT_CONTEXT('part definition',#381,'mechanical');
#383=PRODUCT('16299','16299',
'SAFETY RETAINING CLIP 25 MM SIZE, FOR 10 MM BALL STUD',(#382));
#384=PRESENTATION_STYLE_ASSIGNMENT((#385));
#385=SURFACE_STYLE_USAGE(.BOTH.,#388);
#386=SURFACE_STYLE_RENDERING_WITH_PROPERTIES($,#392,(#387));
#387=SURFACE_STYLE_TRANSPARENT(0.);
#388=SURFACE_SIDE_STYLE('',(#389,#386));
#389=SURFACE_STYLE_FILL_AREA(#390);
#390=FILL_AREA_STYLE('',(#391));
#391=FILL_AREA_STYLE_COLOUR('',#392);
#392=COLOUR_RGB('',0.929411764705882,1.,0.658823529411765);
ENDSEC;
END-ISO-10303-21;
