ISO-10303-21;
HEADER;
/****************************************************************
 * Generated by software with PDElib inside                    *
 * PDElib Version v51a, created Wed 11/30/2011                  *
 * ITI Transcendata (http://www.transcendata.com/)              *
 ****************************************************************/
FILE_DESCRIPTION((''),'2;1');
FILE_NAME('N:\\Website_Ocular\\STEP\\16298.stp','2012-11-15T13:30:55',('fredp'),(''),'Autodesk Inventor 2013','Autodesk Inventor 2013','');
FILE_SCHEMA(('AUTOMOTIVE_DESIGN { 1 0 10303 214 1 1 1 1 }'));
ENDSEC;
DATA;
#5=APPLICATION_CONTEXT('automotive design');
#6=APPLICATION_PROTOCOL_DEFINITION('International Standard','automotive_design',2001,#5);
#7=PRODUCT_CONTEXT('',#5,'mechanical');
#8=PRODUCT('16298','16298',$,(#7));
#9=PRODUCT_RELATED_PRODUCT_CATEGORY('part',$,(#8));
#10=PRODUCT_DEFINITION_FORMATION('',$,#8);
#11=PRODUCT_DEFINITION_CONTEXT('part definition',#5,'design');
#12=PRODUCT_DEFINITION('',$,#10,#11);
#18=(NAMED_UNIT(*)PLANE_ANGLE_UNIT()SI_UNIT($,.RADIAN.));
#19=DIMENSIONAL_EXPONENTS(0.0,0.0,0.0,0.0,0.0,0.0,0.0);
#20=PLANE_ANGLE_MEASURE_WITH_UNIT(PLANE_ANGLE_MEASURE(0.0174532925),#18);
#24=(CONVERSION_BASED_UNIT('DEGREE',#20)NAMED_UNIT(#19)PLANE_ANGLE_UNIT());
#28=(NAMED_UNIT(*)SI_UNIT($,.STERADIAN.)SOLID_ANGLE_UNIT());
#32=(LENGTH_UNIT()NAMED_UNIT(*)SI_UNIT(.CENTI.,.METRE.));
#33=DIMENSIONAL_EXPONENTS(1.0,0.0,0.0,0.0,0.0,0.0,0.0);
#34=LENGTH_MEASURE_WITH_UNIT(LENGTH_MEASURE(2.54),#32);
#38=(CONVERSION_BASED_UNIT('INCH',#34)LENGTH_UNIT()NAMED_UNIT(#33));
#40=UNCERTAINTY_MEASURE_WITH_UNIT(LENGTH_MEASURE(0.000393700787402),#38,'DISTANCE_ACCURACY_VALUE','');
#42=(GEOMETRIC_REPRESENTATION_CONTEXT(3)GLOBAL_UNCERTAINTY_ASSIGNED_CONTEXT((#40))GLOBAL_UNIT_ASSIGNED_CONTEXT((#24,#28,#38))REPRESENTATION_CONTEXT('None','None'));
#43=AXIS2_PLACEMENT_3D('',#44,#45,#46);
#44=CARTESIAN_POINT('',(0.0,0.0,0.0));
#45=DIRECTION('',(0.0,0.0,1.0));
#46=DIRECTION('',(1.0,0.0,0.0));
#47=SHAPE_REPRESENTATION('',(#43),#42);
#48=PRODUCT_DEFINITION_SHAPE('','',#12);
#49=SHAPE_DEFINITION_REPRESENTATION(#48,#47);
#55=(NAMED_UNIT(*)PLANE_ANGLE_UNIT()SI_UNIT($,.RADIAN.));
#56=DIMENSIONAL_EXPONENTS(0.0,0.0,0.0,0.0,0.0,0.0,0.0);
#57=PLANE_ANGLE_MEASURE_WITH_UNIT(PLANE_ANGLE_MEASURE(0.0174532925),#55);
#61=(CONVERSION_BASED_UNIT('DEGREE',#57)NAMED_UNIT(#56)PLANE_ANGLE_UNIT());
#65=(NAMED_UNIT(*)SI_UNIT($,.STERADIAN.)SOLID_ANGLE_UNIT());
#69=(LENGTH_UNIT()NAMED_UNIT(*)SI_UNIT(.MILLI.,.METRE.));
#71=UNCERTAINTY_MEASURE_WITH_UNIT(LENGTH_MEASURE(0.000001),#69,'DISTANCE_ACCURACY_VALUE','');
#73=(GEOMETRIC_REPRESENTATION_CONTEXT(3)GLOBAL_UNCERTAINTY_ASSIGNED_CONTEXT((#71))GLOBAL_UNIT_ASSIGNED_CONTEXT((#61,#65,#69))REPRESENTATION_CONTEXT('','3D'));
#74=CARTESIAN_POINT('',(0.551,0.0,0.0));
#75=DIRECTION('',(-1.0,0.0,0.0));
#76=DIRECTION('',(0.0,-1.0,0.0));
#77=AXIS2_PLACEMENT_3D('',#74,#75,#76);
#78=CONICAL_SURFACE('',#77,0.1475,44.999999999999659);
#79=CARTESIAN_POINT('',(0.541,0.1575,1.928755E-017));
#80=VERTEX_POINT('',#79);
#81=CARTESIAN_POINT('',(0.541,0.0,0.0));
#82=DIRECTION('',(1.0,0.0,0.0));
#83=DIRECTION('',(0.0,-1.0,0.0));
#84=AXIS2_PLACEMENT_3D('',#81,#82,#83);
#85=CIRCLE('',#84,0.1575);
#86=EDGE_CURVE('',#80,#80,#85,.T.);
#87=ORIENTED_EDGE('',*,*,#86,.T.);
#88=EDGE_LOOP('',(#87));
#89=FACE_OUTER_BOUND('',#88,.T.);
#90=CARTESIAN_POINT('',(0.561,0.1375,-1.683834E-017));
#91=VERTEX_POINT('',#90);
#92=CARTESIAN_POINT('',(0.561,0.0,0.0));
#93=DIRECTION('',(-1.0,0.0,0.0));
#94=DIRECTION('',(0.0,-1.0,0.0));
#95=AXIS2_PLACEMENT_3D('',#92,#93,#94);
#96=CIRCLE('',#95,0.1375);
#97=EDGE_CURVE('',#91,#91,#96,.T.);
#98=ORIENTED_EDGE('',*,*,#97,.T.);
#99=EDGE_LOOP('',(#98));
#100=FACE_BOUND('',#99,.T.);
#101=ADVANCED_FACE('',(#89,#100),#78,.T.);
#102=CARTESIAN_POINT('',(0.2805,0.0,0.0));
#103=DIRECTION('',(1.0,0.0,0.0));
#104=DIRECTION('',(0.0,1.0,0.0));
#105=AXIS2_PLACEMENT_3D('',#102,#103,#104);
#106=CYLINDRICAL_SURFACE('',#105,0.1575);
#107=CARTESIAN_POINT('',(0.091,-0.1575,1.928755E-017));
#108=VERTEX_POINT('',#107);
#109=CARTESIAN_POINT('',(0.091,0.0,0.0));
#110=DIRECTION('',(-1.0,0.0,0.0));
#111=DIRECTION('',(0.0,1.0,0.0));
#112=AXIS2_PLACEMENT_3D('',#109,#110,#111);
#113=CIRCLE('',#112,0.1575);
#114=EDGE_CURVE('',#108,#108,#113,.T.);
#115=ORIENTED_EDGE('',*,*,#114,.F.);
#116=EDGE_LOOP('',(#115));
#117=FACE_OUTER_BOUND('',#116,.T.);
#118=ORIENTED_EDGE('',*,*,#86,.F.);
#119=EDGE_LOOP('',(#118));
#120=FACE_BOUND('',#119,.T.);
#121=ADVANCED_FACE('',(#117,#120),#106,.T.);
#122=CARTESIAN_POINT('',(0.561,0.07875,0.0));
#123=DIRECTION('',(1.0,0.0,0.0));
#124=DIRECTION('',(0.0,0.0,-1.0));
#125=AXIS2_PLACEMENT_3D('',#122,#123,#124);
#126=PLANE('',#125);
#127=ORIENTED_EDGE('',*,*,#97,.F.);
#128=EDGE_LOOP('',(#127));
#129=FACE_OUTER_BOUND('',#128,.T.);
#130=ADVANCED_FACE('',(#129),#126,.T.);
#131=CARTESIAN_POINT('',(0.091,0.0,0.0));
#132=DIRECTION('',(-1.0,0.0,0.0));
#133=DIRECTION('',(0.0,0.0,1.0));
#134=AXIS2_PLACEMENT_3D('',#131,#132,#133);
#135=PLANE('',#134);
#136=ORIENTED_EDGE('',*,*,#114,.T.);
#137=EDGE_LOOP('',(#136));
#138=FACE_OUTER_BOUND('',#137,.T.);
#139=ADVANCED_FACE('',(#138),#135,.T.);
#140=CLOSED_SHELL('',(#101,#121,#130,#139));
#141=MANIFOLD_SOLID_BREP('Solid2',#140);
#142=COLOUR_RGB('Steel',0.878431379795074,0.874509811401367,0.858823537826538);
#143=FILL_AREA_STYLE_COLOUR('Steel',#142);
#144=FILL_AREA_STYLE('Steel',(#143));
#145=SURFACE_STYLE_FILL_AREA(#144);
#146=SURFACE_SIDE_STYLE('Steel',(#145));
#147=SURFACE_STYLE_USAGE(.BOTH.,#146);
#148=PRESENTATION_STYLE_ASSIGNMENT((#147));
#149=STYLED_ITEM('',(#148),#141);
#150=MECHANICAL_DESIGN_GEOMETRIC_PRESENTATION_REPRESENTATION('',(#149,#575),#42);
#151=ADVANCED_BREP_SHAPE_REPRESENTATION('ABSR',(#141,#574),#42);
#152=SHAPE_REPRESENTATION_RELATIONSHIP('SRR','None',#151,#47);
#158=(NAMED_UNIT(*)PLANE_ANGLE_UNIT()SI_UNIT($,.RADIAN.));
#159=DIMENSIONAL_EXPONENTS(0.0,0.0,0.0,0.0,0.0,0.0,0.0);
#160=PLANE_ANGLE_MEASURE_WITH_UNIT(PLANE_ANGLE_MEASURE(0.0174532925),#158);
#164=(CONVERSION_BASED_UNIT('DEGREE',#160)NAMED_UNIT(#159)PLANE_ANGLE_UNIT());
#168=(NAMED_UNIT(*)SI_UNIT($,.STERADIAN.)SOLID_ANGLE_UNIT());
#172=(LENGTH_UNIT()NAMED_UNIT(*)SI_UNIT(.MILLI.,.METRE.));
#174=UNCERTAINTY_MEASURE_WITH_UNIT(LENGTH_MEASURE(0.000001),#172,'DISTANCE_ACCURACY_VALUE','');
#176=(GEOMETRIC_REPRESENTATION_CONTEXT(3)GLOBAL_UNCERTAINTY_ASSIGNED_CONTEXT((#174))GLOBAL_UNIT_ASSIGNED_CONTEXT((#164,#168,#172))REPRESENTATION_CONTEXT('','3D'));
#177=CARTESIAN_POINT('',(-0.292,0.0,0.0));
#178=DIRECTION('',(1.0,0.0,0.0));
#179=DIRECTION('',(0.0,0.0,-1.0));
#180=AXIS2_PLACEMENT_3D('',#177,#178,#179);
#181=TOROIDAL_SURFACE('',#180,0.154175837147636,0.047);
#182=CARTESIAN_POINT('',(-0.339,0.154175837147636,0.0));
#183=VERTEX_POINT('',#182);
#184=CARTESIAN_POINT('',(-0.339,0.0,0.0));
#185=DIRECTION('',(1.0,0.0,0.0));
#186=DIRECTION('',(0.0,-1.0,0.0));
#187=AXIS2_PLACEMENT_3D('',#184,#185,#186);
#188=CIRCLE('',#187,0.154175837147636);
#189=EDGE_CURVE('',#183,#183,#188,.T.);
#190=ORIENTED_EDGE('',*,*,#189,.T.);
#191=EDGE_LOOP('',(#190));
#192=FACE_OUTER_BOUND('',#191,.T.);
#193=CARTESIAN_POINT('',(-0.279835504880182,0.10877732331205,-2.664188E-017));
#194=VERTEX_POINT('',#193);
#195=CARTESIAN_POINT('',(-0.279835504880182,0.0,-1.332094E-017));
#196=DIRECTION('',(-1.0,0.0,0.0));
#197=DIRECTION('',(0.0,-1.0,0.0));
#198=AXIS2_PLACEMENT_3D('',#195,#196,#197);
#199=CIRCLE('',#198,0.10877732331205);
#200=EDGE_CURVE('',#194,#194,#199,.T.);
#201=ORIENTED_EDGE('',*,*,#200,.T.);
#202=EDGE_LOOP('',(#201));
#203=FACE_BOUND('',#202,.T.);
#204=ADVANCED_FACE('',(#192,#203),#181,.F.);
#205=CARTESIAN_POINT('',(-0.2185,0.0,0.0));
#206=DIRECTION('',(1.0,0.0,0.0));
#207=DIRECTION('',(0.0,1.0,0.0));
#208=AXIS2_PLACEMENT_3D('',#205,#206,#207);
#209=CONICAL_SURFACE('',#208,0.12521212231205,15.000000000000043);
#210=CARTESIAN_POINT('',(-0.098,0.1575,0.0));
#211=VERTEX_POINT('',#210);
#212=CARTESIAN_POINT('',(-0.098,0.0,0.0));
#213=DIRECTION('',(1.0,0.0,0.0));
#214=DIRECTION('',(0.0,1.0,0.0));
#215=AXIS2_PLACEMENT_3D('',#212,#213,#214);
#216=CIRCLE('',#215,0.1575);
#217=EDGE_CURVE('',#211,#211,#216,.T.);
#218=ORIENTED_EDGE('',*,*,#217,.F.);
#219=EDGE_LOOP('',(#218));
#220=FACE_OUTER_BOUND('',#219,.T.);
#221=ORIENTED_EDGE('',*,*,#200,.F.);
#222=EDGE_LOOP('',(#221));
#223=FACE_BOUND('',#222,.T.);
#224=ADVANCED_FACE('',(#220,#223),#209,.T.);
#225=CARTESIAN_POINT('',(-0.339,0.131909474523806,0.0));
#226=DIRECTION('',(1.0,0.0,0.0));
#227=DIRECTION('',(0.0,0.0,-1.0));
#228=AXIS2_PLACEMENT_3D('',#225,#226,#227);
#229=PLANE('',#228);
#230=CARTESIAN_POINT('',(-0.339,0.170894704423513,0.0));
#231=VERTEX_POINT('',#230);
#232=CARTESIAN_POINT('',(-0.339,0.0,0.0));
#233=DIRECTION('',(1.0,0.0,0.0));
#234=DIRECTION('',(0.0,1.0,0.0));
#235=AXIS2_PLACEMENT_3D('',#232,#233,#234);
#236=CIRCLE('',#235,0.170894704423513);
#237=EDGE_CURVE('',#231,#231,#236,.T.);
#238=ORIENTED_EDGE('',*,*,#237,.T.);
#239=EDGE_LOOP('',(#238));
#240=FACE_OUTER_BOUND('',#239,.T.);
#241=ORIENTED_EDGE('',*,*,#189,.F.);
#242=EDGE_LOOP('',(#241));
#243=FACE_BOUND('',#242,.T.);
#244=ADVANCED_FACE('',(#240,#243),#229,.T.);
#245=CARTESIAN_POINT('',(0.091,0.0,0.0));
#246=DIRECTION('',(-1.0,0.0,0.0));
#247=DIRECTION('',(0.0,0.0,1.0));
#248=AXIS2_PLACEMENT_3D('',#245,#246,#247);
#249=PLANE('',#248);
#250=CARTESIAN_POINT('',(0.091,-0.1575,1.928755E-017));
#251=VERTEX_POINT('',#250);
#252=CARTESIAN_POINT('',(0.091,0.0,0.0));
#253=DIRECTION('',(-1.0,0.0,0.0));
#254=DIRECTION('',(0.0,1.0,0.0));
#255=AXIS2_PLACEMENT_3D('',#252,#253,#254);
#256=CIRCLE('',#255,0.1575);
#257=EDGE_CURVE('',#251,#251,#256,.T.);
#258=ORIENTED_EDGE('',*,*,#257,.F.);
#259=EDGE_LOOP('',(#258));
#260=FACE_OUTER_BOUND('',#259,.T.);
#261=ADVANCED_FACE('',(#260),#249,.F.);
#262=CARTESIAN_POINT('',(0.2805,0.0,0.0));
#263=DIRECTION('',(1.0,0.0,0.0));
#264=DIRECTION('',(0.0,1.0,0.0));
#265=AXIS2_PLACEMENT_3D('',#262,#263,#264);
#266=CYLINDRICAL_SURFACE('',#265,0.1575);
#267=ORIENTED_EDGE('',*,*,#257,.T.);
#268=EDGE_LOOP('',(#267));
#269=FACE_OUTER_BOUND('',#268,.T.);
#270=CARTESIAN_POINT('',(1.213184E-033,0.1575,0.0));
#271=VERTEX_POINT('',#270);
#272=CARTESIAN_POINT('',(0.0,0.0,0.0));
#273=DIRECTION('',(1.0,0.0,0.0));
#274=DIRECTION('',(0.0,1.0,0.0));
#275=AXIS2_PLACEMENT_3D('',#272,#273,#274);
#276=CIRCLE('',#275,0.1575);
#277=EDGE_CURVE('',#271,#271,#276,.T.);
#278=ORIENTED_EDGE('',*,*,#277,.T.);
#279=EDGE_LOOP('',(#278));
#280=FACE_BOUND('',#279,.T.);
#281=ADVANCED_FACE('',(#269,#280),#266,.T.);
#282=CARTESIAN_POINT('',(6.065921E-034,0.2231,0.0));
#283=DIRECTION('',(1.0,0.0,0.0));
#284=DIRECTION('',(0.0,0.0,-1.0));
#285=AXIS2_PLACEMENT_3D('',#282,#283,#284);
#286=PLANE('',#285);
#287=CARTESIAN_POINT('',(0.0,-0.14435,0.250021534072568));
#288=VERTEX_POINT('',#287);
#289=CARTESIAN_POINT('',(0.0,-0.2887,1.173616E-016));
#290=VERTEX_POINT('',#289);
#291=CARTESIAN_POINT('',(6.065921E-034,-0.14435,0.250021534072568));
#292=DIRECTION('',(0.0,-0.5,-0.866025403784438));
#293=VECTOR('',#292,0.2887);
#294=LINE('',#291,#293);
#295=EDGE_CURVE('',#288,#290,#294,.T.);
#296=ORIENTED_EDGE('',*,*,#295,.T.);
#297=CARTESIAN_POINT('',(0.0,-0.14435,-0.250021534072568));
#298=VERTEX_POINT('',#297);
#299=CARTESIAN_POINT('',(6.065921E-034,-0.2887,9.714451E-017));
#300=DIRECTION('',(0.0,0.499999999999999,-0.866025403784439));
#301=VECTOR('',#300,0.2887);
#302=LINE('',#299,#301);
#303=EDGE_CURVE('',#290,#298,#302,.T.);
#304=ORIENTED_EDGE('',*,*,#303,.T.);
#305=CARTESIAN_POINT('',(0.0,0.14435,-0.250021534072568));
#306=VERTEX_POINT('',#305);
#307=CARTESIAN_POINT('',(6.065921E-034,-0.14435,-0.250021534072568));
#308=DIRECTION('',(0.0,1.0,0.0));
#309=VECTOR('',#308,0.2887);
#310=LINE('',#307,#309);
#311=EDGE_CURVE('',#298,#306,#310,.T.);
#312=ORIENTED_EDGE('',*,*,#311,.T.);
#313=CARTESIAN_POINT('',(0.0,0.2887,0.0));
#314=VERTEX_POINT('',#313);
#315=CARTESIAN_POINT('',(6.065921E-034,0.14435,-0.250021534072568));
#316=DIRECTION('',(0.0,0.500000000000001,0.866025403784438));
#317=VECTOR('',#316,0.2887);
#318=LINE('',#315,#317);
#319=EDGE_CURVE('',#306,#314,#318,.T.);
#320=ORIENTED_EDGE('',*,*,#319,.T.);
#321=CARTESIAN_POINT('',(0.0,0.14435,0.250021534072568));
#322=VERTEX_POINT('',#321);
#323=CARTESIAN_POINT('',(6.065921E-034,0.2887,-3.122502E-017));
#324=DIRECTION('',(0.0,-0.5,0.866025403784439));
#325=VECTOR('',#324,0.2887);
#326=LINE('',#323,#325);
#327=EDGE_CURVE('',#314,#322,#326,.T.);
#328=ORIENTED_EDGE('',*,*,#327,.T.);
#329=CARTESIAN_POINT('',(6.065921E-034,0.14435,0.250021534072568));
#330=DIRECTION('',(0.0,-1.0,0.0));
#331=VECTOR('',#330,0.2887);
#332=LINE('',#329,#331);
#333=EDGE_CURVE('',#322,#288,#332,.T.);
#334=ORIENTED_EDGE('',*,*,#333,.T.);
#335=EDGE_LOOP('',(#296,#304,#312,#320,#328,#334));
#336=FACE_OUTER_BOUND('',#335,.T.);
#337=ORIENTED_EDGE('',*,*,#277,.F.);
#338=EDGE_LOOP('',(#337));
#339=FACE_BOUND('',#338,.T.);
#340=ADVANCED_FACE('',(#336,#339),#286,.T.);
#341=CARTESIAN_POINT('',(0.0,-0.14435,0.250021534072568));
#342=DIRECTION('',(0.0,-0.866025403784438,0.5));
#343=DIRECTION('',(1.0,0.0,0.0));
#344=AXIS2_PLACEMENT_3D('',#341,#342,#343);
#345=PLANE('',#344);
#346=CARTESIAN_POINT('',(-0.062845065953037,-0.2887,1.173616E-016));
#347=VERTEX_POINT('',#346);
#348=CARTESIAN_POINT('',(-0.062845065953037,-0.14435,0.250021534072568));
#349=VERTEX_POINT('',#348);
#350=CARTESIAN_POINT('',(-0.062845065953037,-0.2887,4.949163E-016));
#351=CARTESIAN_POINT('',(-0.082184298916753,-0.216525,0.125010767036284));
#352=CARTESIAN_POINT('',(-0.062845065953037,-0.14435,0.250021534072567));
#360=(BOUNDED_CURVE()B_SPLINE_CURVE(2,(#350,#351,#352),.UNSPECIFIED.,.F.,.U.)B_SPLINE_CURVE_WITH_KNOTS((3,3),(0.0,0.735185564152027),.UNSPECIFIED.)CURVE()GEOMETRIC_REPRESENTATION_ITEM()RATIONAL_B_SPLINE_CURVE((1.0,1.154700538379247,1.0))REPRESENTATION_ITEM(''));
#361=EDGE_CURVE('',#347,#349,#360,.T.);
#362=ORIENTED_EDGE('',*,*,#361,.F.);
#363=CARTESIAN_POINT('',(0.0,-0.2887,2.185478E-016));
#364=DIRECTION('',(-1.0,0.0,0.0));
#365=VECTOR('',#364,0.062845065953037);
#366=LINE('',#363,#365);
#367=EDGE_CURVE('',#290,#347,#366,.T.);
#368=ORIENTED_EDGE('',*,*,#367,.F.);
#369=ORIENTED_EDGE('',*,*,#295,.F.);
#370=CARTESIAN_POINT('',(0.0,-0.14435,0.250021534072568));
#371=DIRECTION('',(-1.0,0.0,0.0));
#372=VECTOR('',#371,0.062845065953037);
#373=LINE('',#370,#372);
#374=EDGE_CURVE('',#288,#349,#373,.T.);
#375=ORIENTED_EDGE('',*,*,#374,.T.);
#376=EDGE_LOOP('',(#362,#368,#369,#375));
#377=FACE_OUTER_BOUND('',#376,.T.);
#378=ADVANCED_FACE('',(#377),#345,.T.);
#379=CARTESIAN_POINT('',(0.0,-0.2887,1.173616E-016));
#380=DIRECTION('',(0.0,-0.866025403784439,-0.5));
#381=DIRECTION('',(0.0,0.5,-0.866025403784439));
#382=AXIS2_PLACEMENT_3D('',#379,#380,#381);
#383=PLANE('',#382);
#384=CARTESIAN_POINT('',(-0.062845065953037,-0.14435,-0.250021534072568));
#385=VERTEX_POINT('',#384);
#386=CARTESIAN_POINT('',(-0.062845065953037,-0.14435,-0.250021534072567));
#387=CARTESIAN_POINT('',(-0.082184298916753,-0.216525,-0.125010767036284));
#388=CARTESIAN_POINT('',(-0.062845065953037,-0.2887,-2.403879E-016));
#396=(BOUNDED_CURVE()B_SPLINE_CURVE(2,(#386,#387,#388),.UNSPECIFIED.,.F.,.U.)B_SPLINE_CURVE_WITH_KNOTS((3,3),(0.0,0.735185564152026),.UNSPECIFIED.)CURVE()GEOMETRIC_REPRESENTATION_ITEM()RATIONAL_B_SPLINE_CURVE((1.0,1.154700538379251,1.0))REPRESENTATION_ITEM(''));
#397=EDGE_CURVE('',#385,#347,#396,.T.);
#398=ORIENTED_EDGE('',*,*,#397,.F.);
#399=CARTESIAN_POINT('',(0.0,-0.14435,-0.250021534072567));
#400=DIRECTION('',(-1.0,0.0,0.0));
#401=VECTOR('',#400,0.062845065953037);
#402=LINE('',#399,#401);
#403=EDGE_CURVE('',#298,#385,#402,.T.);
#404=ORIENTED_EDGE('',*,*,#403,.F.);
#405=ORIENTED_EDGE('',*,*,#303,.F.);
#406=ORIENTED_EDGE('',*,*,#367,.T.);
#407=EDGE_LOOP('',(#398,#404,#405,#406));
#408=FACE_OUTER_BOUND('',#407,.T.);
#409=ADVANCED_FACE('',(#408),#383,.T.);
#410=CARTESIAN_POINT('',(0.0,-0.14435,-0.250021534072568));
#411=DIRECTION('',(0.0,0.0,-1.0));
#412=DIRECTION('',(-1.0,0.0,0.0));
#413=AXIS2_PLACEMENT_3D('',#410,#411,#412);
#414=PLANE('',#413);
#415=CARTESIAN_POINT('',(-0.062845065953037,0.14435,-0.250021534072568));
#416=VERTEX_POINT('',#415);
#417=CARTESIAN_POINT('',(-0.062845065953037,0.14435,-0.250021534072568));
#418=CARTESIAN_POINT('',(-0.082184298916753,-1.420561E-016,-0.250021534072568));
#419=CARTESIAN_POINT('',(-0.062845065953037,-0.14435,-0.250021534072568));
#427=(BOUNDED_CURVE()B_SPLINE_CURVE(2,(#417,#418,#419),.UNSPECIFIED.,.F.,.U.)B_SPLINE_CURVE_WITH_KNOTS((3,3),(0.0,0.735185564152026),.UNSPECIFIED.)CURVE()GEOMETRIC_REPRESENTATION_ITEM()RATIONAL_B_SPLINE_CURVE((1.0,1.154700538379251,1.0))REPRESENTATION_ITEM(''));
#428=EDGE_CURVE('',#416,#385,#427,.T.);
#429=ORIENTED_EDGE('',*,*,#428,.F.);
#430=CARTESIAN_POINT('',(0.0,0.14435,-0.250021534072568));
#431=DIRECTION('',(-1.0,0.0,0.0));
#432=VECTOR('',#431,0.062845065953037);
#433=LINE('',#430,#432);
#434=EDGE_CURVE('',#306,#416,#433,.T.);
#435=ORIENTED_EDGE('',*,*,#434,.F.);
#436=ORIENTED_EDGE('',*,*,#311,.F.);
#437=ORIENTED_EDGE('',*,*,#403,.T.);
#438=EDGE_LOOP('',(#429,#435,#436,#437));
#439=FACE_OUTER_BOUND('',#438,.T.);
#440=ADVANCED_FACE('',(#439),#414,.T.);
#441=CARTESIAN_POINT('',(0.0,0.14435,-0.250021534072568));
#442=DIRECTION('',(0.0,0.866025403784438,-0.500000000000001));
#443=DIRECTION('',(-1.0,0.0,0.0));
#444=AXIS2_PLACEMENT_3D('',#441,#442,#443);
#445=PLANE('',#444);
#446=CARTESIAN_POINT('',(-0.062845065953037,0.2887,0.0));
#447=VERTEX_POINT('',#446);
#448=CARTESIAN_POINT('',(-0.062845065953037,0.2887,-6.504615E-016));
#449=CARTESIAN_POINT('',(-0.082184298916753,0.216525,-0.125010767036284));
#450=CARTESIAN_POINT('',(-0.062845065953037,0.14435,-0.250021534072567));
#458=(BOUNDED_CURVE()B_SPLINE_CURVE(2,(#448,#449,#450),.UNSPECIFIED.,.F.,.U.)B_SPLINE_CURVE_WITH_KNOTS((3,3),(0.0,0.735185564152026),.UNSPECIFIED.)CURVE()GEOMETRIC_REPRESENTATION_ITEM()RATIONAL_B_SPLINE_CURVE((1.0,1.154700538379252,1.0))REPRESENTATION_ITEM(''));
#459=EDGE_CURVE('',#447,#416,#458,.T.);
#460=ORIENTED_EDGE('',*,*,#459,.F.);
#461=CARTESIAN_POINT('',(0.0,0.2887,-3.933861E-016));
#462=DIRECTION('',(-1.0,0.0,0.0));
#463=VECTOR('',#462,0.062845065953037);
#464=LINE('',#461,#463);
#465=EDGE_CURVE('',#314,#447,#464,.T.);
#466=ORIENTED_EDGE('',*,*,#465,.F.);
#467=ORIENTED_EDGE('',*,*,#319,.F.);
#468=ORIENTED_EDGE('',*,*,#434,.T.);
#469=EDGE_LOOP('',(#460,#466,#467,#468));
#470=FACE_OUTER_BOUND('',#469,.T.);
#471=ADVANCED_FACE('',(#470),#445,.T.);
#472=CARTESIAN_POINT('',(0.0,0.2887,-2.185478E-016));
#473=DIRECTION('',(0.0,0.866025403784439,0.5));
#474=DIRECTION('',(0.0,-0.5,0.866025403784439));
#475=AXIS2_PLACEMENT_3D('',#472,#473,#474);
#476=PLANE('',#475);
#477=CARTESIAN_POINT('',(-0.062845065953037,0.14435,0.250021534072568));
#478=VERTEX_POINT('',#477);
#479=CARTESIAN_POINT('',(-0.062845065953037,0.14435,0.250021534072567));
#480=CARTESIAN_POINT('',(-0.082184298916753,0.216525,0.125010767036284));
#481=CARTESIAN_POINT('',(-0.062845065953037,0.2887,2.121070E-016));
#489=(BOUNDED_CURVE()B_SPLINE_CURVE(2,(#479,#480,#481),.UNSPECIFIED.,.F.,.U.)B_SPLINE_CURVE_WITH_KNOTS((3,3),(0.0,0.735185564152027),.UNSPECIFIED.)CURVE()GEOMETRIC_REPRESENTATION_ITEM()RATIONAL_B_SPLINE_CURVE((1.0,1.15470053837925,1.0))REPRESENTATION_ITEM(''));
#490=EDGE_CURVE('',#478,#447,#489,.T.);
#491=ORIENTED_EDGE('',*,*,#490,.F.);
#492=CARTESIAN_POINT('',(-0.062845065953037,0.14435,0.250021534072568));
#493=DIRECTION('',(1.0,0.0,0.0));
#494=VECTOR('',#493,0.062845065953037);
#495=LINE('',#492,#494);
#496=EDGE_CURVE('',#478,#322,#495,.T.);
#497=ORIENTED_EDGE('',*,*,#496,.T.);
#498=ORIENTED_EDGE('',*,*,#327,.F.);
#499=ORIENTED_EDGE('',*,*,#465,.T.);
#500=EDGE_LOOP('',(#491,#497,#498,#499));
#501=FACE_OUTER_BOUND('',#500,.T.);
#502=ADVANCED_FACE('',(#501),#476,.T.);
#503=CARTESIAN_POINT('',(0.0,0.14435,0.250021534072568));
#504=DIRECTION('',(0.0,0.0,1.0));
#505=DIRECTION('',(1.0,0.0,0.0));
#506=AXIS2_PLACEMENT_3D('',#503,#504,#505);
#507=PLANE('',#506);
#508=CARTESIAN_POINT('',(-0.062845065953037,-0.14435,0.250021534072568));
#509=CARTESIAN_POINT('',(-0.082184298916753,5.829694E-017,0.250021534072568));
#510=CARTESIAN_POINT('',(-0.062845065953037,0.14435,0.250021534072568));
#518=(BOUNDED_CURVE()B_SPLINE_CURVE(2,(#508,#509,#510),.UNSPECIFIED.,.F.,.U.)B_SPLINE_CURVE_WITH_KNOTS((3,3),(0.0,0.735185564152027),.UNSPECIFIED.)CURVE()GEOMETRIC_REPRESENTATION_ITEM()RATIONAL_B_SPLINE_CURVE((1.0,1.15470053837925,1.0))REPRESENTATION_ITEM(''));
#519=EDGE_CURVE('',#349,#478,#518,.T.);
#520=ORIENTED_EDGE('',*,*,#519,.F.);
#521=ORIENTED_EDGE('',*,*,#374,.F.);
#522=ORIENTED_EDGE('',*,*,#333,.F.);
#523=ORIENTED_EDGE('',*,*,#496,.F.);
#524=EDGE_LOOP('',(#520,#521,#522,#523));
#525=FACE_OUTER_BOUND('',#524,.T.);
#526=ADVANCED_FACE('',(#525),#507,.T.);
#527=CARTESIAN_POINT('',(-0.080422532976518,0.0,0.0));
#528=DIRECTION('',(1.0,0.0,0.0));
#529=DIRECTION('',(0.0,1.0,0.0));
#530=AXIS2_PLACEMENT_3D('',#527,#528,#529);
#531=CONICAL_SURFACE('',#530,0.2231,75.000000000000043);
#532=ORIENTED_EDGE('',*,*,#519,.T.);
#533=ORIENTED_EDGE('',*,*,#490,.T.);
#534=ORIENTED_EDGE('',*,*,#459,.T.);
#535=ORIENTED_EDGE('',*,*,#428,.T.);
#536=ORIENTED_EDGE('',*,*,#397,.T.);
#537=ORIENTED_EDGE('',*,*,#361,.T.);
#538=EDGE_LOOP('',(#532,#533,#534,#535,#536,#537));
#539=FACE_OUTER_BOUND('',#538,.T.);
#540=ORIENTED_EDGE('',*,*,#217,.T.);
#541=EDGE_LOOP('',(#540));
#542=FACE_BOUND('',#541,.T.);
#543=ADVANCED_FACE('',(#539,#542),#531,.T.);
#544=CARTESIAN_POINT('',(-0.437,-3.278218E-017,0.0));
#545=DIRECTION('',(0.0,0.0,1.0));
#546=DIRECTION('',(1.0,0.0,0.0));
#547=AXIS2_PLACEMENT_3D('',#544,#545,#546);
#548=SPHERICAL_SURFACE('',#547,0.197);
#549=ORIENTED_EDGE('',*,*,#237,.F.);
#550=EDGE_LOOP('',(#549));
#551=FACE_OUTER_BOUND('',#550,.T.);
#552=CARTESIAN_POINT('',(-0.602,0.10762899237659,0.0));
#553=VERTEX_POINT('',#552);
#554=CARTESIAN_POINT('',(-0.602,0.0,0.0));
#555=DIRECTION('',(1.0,0.0,0.0));
#556=DIRECTION('',(0.0,1.0,0.0));
#557=AXIS2_PLACEMENT_3D('',#554,#555,#556);
#558=CIRCLE('',#557,0.10762899237659);
#559=EDGE_CURVE('',#553,#553,#558,.T.);
#560=ORIENTED_EDGE('',*,*,#559,.T.);
#561=EDGE_LOOP('',(#560));
#562=FACE_BOUND('',#561,.T.);
#563=ADVANCED_FACE('',(#551,#562),#548,.T.);
#564=CARTESIAN_POINT('',(-0.602,0.053814496188295,0.0));
#565=DIRECTION('',(-1.0,0.0,0.0));
#566=DIRECTION('',(0.0,0.0,1.0));
#567=AXIS2_PLACEMENT_3D('',#564,#565,#566);
#568=PLANE('',#567);
#569=ORIENTED_EDGE('',*,*,#559,.F.);
#570=EDGE_LOOP('',(#569));
#571=FACE_OUTER_BOUND('',#570,.T.);
#572=ADVANCED_FACE('',(#571),#568,.T.);
#573=CLOSED_SHELL('',(#204,#224,#244,#261,#281,#340,#378,#409,#440,#471,#502,#526,#543,#563,#572));
#574=MANIFOLD_SOLID_BREP('Solid3',#573);
#575=STYLED_ITEM('',(#148),#574);
ENDSEC;
END-ISO-10303-21;
